Danzig - Long Way Back From Hell Chords & Tabs

 

Long Way Back From Hell Chords & Tabs

Danzig Chords & Tabs

Version: 1 Type: Bass Tab 0 ratings
1 star 2 stars 3 stars 4 stars 5 stars
comments

Long Way Back From Hell Bass Tab

   
Danzig - Long Way Back From Hell
Album: Danzig II: Lucifuge
Bassist: Eerie Von
Tunning (E,A,D,G)
Tabbed by metallicaslayer22

Intro/Verse
G----------------------------------------|
D----------------------------------------|
A----------------------------------------|
E-7-7-7-7-7-7-(Hit as many times needed)-|

Chorus
G-----------------------------------------------|
D-----------------------------------------------|
A-----------------------------------------------|
E-7-7-7-7-7-7-7-7-7-7-5-5-5-5-5-5-5-5-5-5 x's 2-|

G-----------------------------|
D-----------------------------|
A-----------------------------|
E-3-3-3-3-3-3-3-5-5-5-5-5-5-5-|

G-------------------------------------------------|
D-------------------------------------------------|
A-------------------------------------------------|
E-7-7-7-7-7-7-7-7-7-7-3-3-3-3-3-3-3-5-5-5-5-5-5-5-|

G------------------------------------------|
D------------------------------------------|
A------------------------------------------|
E-22222222222-2-(Hit as many times needed)-|

Verse
G----------------------------------------|
D----------------------------------------|
A----------------------------------------|
E-7-7-7-7-7-7-(Hit as many times needed)-|

Chorus
G-----------------------------------------------|
D-----------------------------------------------|
A-----------------------------------------------|
E-7-7-7-7-7-7-7-7-7-7-5-5-5-5-5-5-5-5-5-5 x's 2-|

G-----------------------------|
D-----------------------------|
A-----------------------------|
E-3-3-3-3-3-3-3-5-5-5-5-5-5-5-|

G-------------------------------------------------|
D-------------------------------------------------|
A-------------------------------------------------|
E-7-7-7-7-7-7-7-7-7-7-3-3-3-3-3-3-3-5-5-5-5-5-5-5-|
[ Tab from: http://www.guitartabs.cc/tabs/d/danzig/long_way_back_from_hell_btab.html ]
G------------------------------------------|
D------------------------------------------|
A------------------------------------------|
E-22222222222-2-(Hit as many times needed)-|

Solo
G----------------------------------------------------| \
D----------------------------------------------------|  \
A----------------------------------------------------|   \
E-7-7-7-7-7-7-7-7-7-7-10-10-10-10-10-10-10-10-10-10--|    \
                                                         \ x's 3
G---------------------------------------------------------|                                   /
D---------------------------------------------------------|                                  /
A---------------------------------------------------------|                                 /
E-3-3-3-3-3-5-5-5-5-5-------------------------------------|                                /

G---------------------------------------------------|
D---------------------------------------------------|
A---------------------------------------------------|
E-7-7-7-7-7-7-7-7-7-7-10-10-10-10-10-10-10-10-10-10-|

G---------------|
D-9-7-----------|
A-----9-8-7-5---|
E-------------7-|

Chorus
G--------------------------------------------------------------|
D--------------------------------------------------------------|
A----5-----------5---------------------------------------------|
E-5-----5--7--5-----2222222222-2(Hit two as many times needed)-|

Verse
G----------------------------------------|
D----------------------------------------|
A----------------------------------------|
E-7-7-7-7-7-7-(Hit as many times needed)-|

Chorus
G-----------------------------------------------|
D-----------------------------------------------|
A-----------------------------------------------|
E-7-7-7-7-7-7-7-7-7-7-5-5-5-5-5-5-5-5-5-5 x's 2-|

G-------------------------------------------------|
D-------------------------------------------------|
A-------------------------------------------------|
E-3-3-3-3-3-3-3-5-5-5-5-5-5-5-7777-7777-7777-7777-| x's 3

G------|
D------|
A------|
E-3--5-|
Comments