Danzig - Let It Be Captured Chords & Tabs

 

Let It Be Captured Chords & Tabs

Danzig Chords & Tabs

Version: 1 Type: Tab 0 ratings
1 star 2 stars 3 stars 4 stars 5 stars
comments

Let It Be Captured Tab

I saw this already on here but the tab was wrong so here's the 
correct tab.

[ Tab from: http://www.guitartabs.cc/tabs/d/danzig/let_it_be_captured_tab.html ]
E-------------|------------|------------|------------|------------|
B-------------|------------|------------|------------|------------|
G--------2----|-------2----|-------2----|-------2----|-------2----|
D-----0-----0-|----0-----0-|----0-----0-|----0-----0-|----0-----0-|
A--3----------|-3----------|-1----------|-1----------|------------|
E-------------|------------|------------|------------|-1----------|


E-------------|------------|------------| Thats Basically it very 
B-------------|------------|------------| simple.
G--------2----|-------2----|-------2----|
D-----0-----0-|----0-----0-|----0-----0-|
A-------------|------------|------------|
E--1----------|-0----------|-3----------|
Comments