Danzig - Killer Wolf Chords & Tabs

 

Killer Wolf Chords & Tabs

Danzig Chords & Tabs

Version: 1 Type: Bass Tab 0 ratings
1 star 2 stars 3 stars 4 stars 5 stars
comments

Killer Wolf Bass Tab

   
Danzig - Killer Wolf
Album: Danzig II: Lucifuge
Bassist: Eerie Von
Tunning (E,A,D,G)
Tabbed by metallicaslayer22

Intro
G------------|
D------------|
A-------1--5-|
E-3--1-------| x's 2

Verse
G--------------------------------------------------|
D--------------------------------------------------|
A--------------------------------------------1-3---|
E-3-3-3-3-3-3-1-3-3-3-3-3-3-1-3-3-3-3-3-3--3-----3-| x's 2

Pre-Chorus
G---------------------------|
D---------------------------|
A---------------------------|
E-6666666666666666666666666-

G-----------------------------|
D-----------------------------|
A-----------------------------|
E-3-3-3-3-3-3-1-3-3-3-3-3-3-1-|

G---------------------------|
D---------------------------|
A---------------------------|
E-6666666666666666666666666-

Chorus
G------------|
D------------|
A-------1--5-|
E-3--1-------| x's 2

Verse
G--------------------------------------------------|
D--------------------------------------------------|
A--------------------------------------------1-3---|
E-3-3-3-3-3-3-1-3-3-3-3-3-3-1-3-3-3-3-3-3--3-----3-| x's 2

Pre-Chorus
G---------------------------|
D---------------------------|
A---------------------------|
E-6666666666666666666666666-
[ Tab from: http://www.guitartabs.cc/tabs/d/danzig/killer_wolf_btab.html ]
G-----------------------------|
D-----------------------------|
A-----------------------------|
E-3-3-3-3-3-3-1-3-3-3-3-3-3-1-|

G---------------------------|
D---------------------------|
A---------------------------|
E-6666666666666666666666666-

Chorus
G------------|
D------------|
A-------1--5-|
E-3--1-------| x's 4

Solo
G---------------------------------|
D---------------------------------|
A-------1-1-------------1-1-------|
E-1-3-3-----3-3-1-1-3-3-----3-3-1-|

G-------------------------|
D-------------------------|
A-------1-1---------1-3---|
E-1-3-3-----3-3-1-1-----3-|

G---------------------------------|
D---------------------------------|
A-------1-1-------------1-1-------|
E-1-3-3-----3-3-1-1-3-3-----3-3-1-|

G-------------------------|
D-------------------------|
A-------1-1---------1-3---|
E-1-3-3-----3-3-1-1-----3-|

Pre-Chorus
G---------------------------|
D---------------------------|
A---------------------------|
E-6666666666666666666666666-

G-----------------------------|
D-----------------------------|
A-----------------------------|
E-3-3-3-3-3-3-1-3-3-3-3-3-3-1-|

G---------------------------|
D---------------------------|
A---------------------------|
E-6666666666666666666666666-

Chorus
G------------|
D------------|
A-------1--5-|
E-3--1-------| x's 4

Outro
G------------|
D------------|
A-------1--5-|
E-3--1-------| x's 4
Comments