Danzig - Devils Plaything Chords & Tabs

 

Devils Plaything Chords & Tabs

Danzig Chords & Tabs

Version: 1 Type: Bass Tab

Devils Plaything Bass Tab

After Intro
G|------------||
D|------------||
A|----3-------||
E|-0----5-7---||

Verse     Chorus
G|-------|--------------||
D|-------|--------------||
A|-7>----|---3----------||
E|-------|-0---5-5-7----||
[ Tab from: http://www.guitartabs.cc/tabs/d/danzig/devils_plaything_btab.html ]
Break
G|----------------------------------||
D|----------------------------------||
A|-7-7-7-7-7-7-7-7--5-5-5-7-7-7-7-7-||
E|----------------------------------||

G|-----------------||
D|-----------------||
A|-7--3/5-5-5-7----||
E|-----------------||

Outro
G|-----------------||
D|-----------------||
A|-7-3--5-5-5-7----||
E|-----------------||