Danzig - Circle Of Snakes Chords & Tabs

 

Circle Of Snakes Chords & Tabs

Danzig Chords & Tabs

Version: 1 Type: Tab

Circle Of Snakes Tab

   
Danzig
Circle of Snakes
From Circle of Snakes Album



 intro/chorus
|-------------|-------------|------------|------------|
|-------------|-------------|------------|------------|
|-------------|-------------|------------|------------|
|--2-2-2-2----|--2-2-2-2----|--2-2-2-2-2-|--5----5--4-| 
|--2-2-2-2--2-|--2-2-2-2--2-|--2-2-2-2-2-|--5----5--4-|
|--0-0-3-0----|--0-0-3-0----|--0-0-3-0-0-|--3/---3--2-|
	   p.h.		 p.h.	
[ Tab from: http://www.guitartabs.cc/tabs/d/danzig/circle_of_snakes_tab.html ]
 verse
|------------|------------|------------|------------|
|------------|------------|------------|------------|
|------------|------------|------------|------------|
|--2-2-2-2-2-|--2-2-2-2-2-|--2-2-2-2-2-|--2-2-2-2-2-|
|--2-2-2-2-2-|--2-2-2-2-2-|--2-2-2-2-2-|--2-2-2-2-2-|
|--0-0-3-0-0-|--0-0-3-0-0-|--0-0-3-0-0-|--0-0-3-0-0-|
 p.m................................................

 bridge
|------------|------------|------------|-----------|
|------------|------------|------------|-----------|
|------------|------------|------------|-----------|
|--2-2-2-2-2-|--2-2-2-2-2-|--2-2-2-2-2-|--5----5-4-|
|--2-2-2-2-2-|--2-2-2-2-2-|--2-2-2-2-2-|--5----5-4-|
|--0-0-3-0-0-|--0-0-3-0-0-|--0-0-3-0-0-|--3/---3-2-|


legend
p.h.= pinch harmonic
p.m.=palm mute


song flow
intro (4 times)	
verse (3 times)	
bridge 	
chorus (4 times)
verse (3 times)	
bridge
chorus (4 times)	
solo/ chorus in background
chorus (2 times)