Danzig - Blood And Tears Chords & Tabs

 

Blood And Tears Chords & Tabs

Danzig Chords & Tabs

Version: 1 Type: Bass Tab 0 ratings
1 star 2 stars 3 stars 4 stars 5 stars
comments

Blood And Tears Bass Tab

   
Danzig - Blood And Tears
Album: Danzig II: Lucifuge
Bassist: Eerie Von
Tunning (E,A,D,G)
Tabbed by metallicaslayer22

Chorus
G--------------------|
D--------------------|
A-5-5-4--2-2-0-------|
E--------------3-3-2-| x's 2

G-------------------------------------------------|
D-------------------------------------------------|
A-------------------------------------------------|
E-3-3-3-3-3-3-3-3-3-3-3-3-2-2-2-2-2-2-2-2-2-2-2-2-|

Post-Chorus
G---------------|
D---------------|
A-2-0---0-2-0---|
E-----2-------2-|

Verse
G-----------------------|
D-----------------------|
A-2---0-2---0-2---0-2---|
E---2-----2-----2-----2-|

G-------------------|
D-------------------|
A-------------------|
E-2-1-0-1-2-1-0-1-2-|

Chorus
G--------------------|
D--------------------|
A-5-5-4--2-2-0-------|
E--------------3-3-2-| x's 4
[ Tab from: http://www.guitartabs.cc/tabs/d/danzig/blood_and_tears_btab.html ]
G-------------------------------------------------|
D-------------------------------------------------|
A-------------------------------------------------|
E-3-3-3-3-3-3-3-3-3-3-3-3-2-2-2-2-2-2-2-2-2-2-2-2-|

Solo
G-----------------|
D-----------------|
A-2-0---0-2-0---0-|
E-----2-------2---| x's 2

G-------------------|
D-------------------|
A-------------------|
E-2-1-0-1-2-1-0-1-2-|

Chorus
G--------------------|
D--------------------|
A-5-5-4--2-2-0-------|
E--------------3-3-2-| x's 4

G-------------------------------------------------|
D-------------------------------------------------|
A-------------------------------------------------|
E-3-3-3-3-3-3-3-3-3-3-3-3-2-2-2-2-2-2-2-2-2-2-2-2-|

G---------------------------|
D---------------------------|
A---------------------------|
E-3-3-3-3-3-3-3-3-3-3-3-3-2-|

Outro
G---------------|
D---------------|
A-2---0-2---0-2-|
E---2-----2-----|
Comments