Danzig - Black Angel White Angel Chords & Tabs

 

Black Angel White Angel Chords & Tabs

Danzig Chords & Tabs

Version: 2 Type: Tab

Black Angel White Angel Tab

   
BLACK ANGEL, WHITE ANGEL - Danzig
==========================

Tuning: (C F Bb Eb G C)

intro/chorus: 
C |-------------------------|-------------------------| 
G |-------------------------|-------------------------| 
Eb|-9---7777-9---9---7777-4-|-5---5-5-5---5-5-5---5-5-| 
Bb|-9---7777-9---9---7777-4-|-5---5-3-5---5-5-5---5-5-| 
F |-7---5555-7---7---5555-2-|-3---3-3-3---3-3-3---3-3-| 
C |-------------------------|-------------------------|  
pm                                - -     -       -
 verse: 
C |--------------------------------| 
G |--------------------------------| 
Eb|--------------------------------| 
Bb|-9-9-9-9-9-9-9-9-9-9-9-9-9-9-9-9| 
F |-7-7-7-7-7-7-7-7-7-7-7-7-7-7-7-7| 
C |--------------------------------|  
 pm----------------------------->  
[ Tab from: http://www.guitartabs.cc/tabs/d/danzig/black_angel_white_angel_tab_ver_2.html ]
 verse riff cont'd: 
C |--------------------------------| 
G |--------------------------------| 
Eb|--------------------------------| 
Bb|-5-5-5-5-5-5-5-5-5-5-5-5-5-5-5-5| 
F |-3-3-3-3-3-3-3-3-3-3-3-3-3-3-3-3| 
C |--------------------------------| 
  pm----------------------------->  

 verse cont'd: 
C |--------------------------------| 
G |--------------------------------| 
Eb|--------------------------------| 
Bb|-9-9-9-9-9-9-9-9-9-9-9-9-9-9-9-9| 
F |-7-7-7-7-7-7-7-7-7-7-7-7-7-7-7-7| 
C |--------------------------------|    
pm----------------------------->    

verse riff cont'd: 
C |-------------------------------| 
G |-------------------------------| 
Eb|---------------------5---x-5---| 
Bb|-5-5-5-5-5-5-5-5-5-5-5---x-5---| 
F |-3-3-3-3-3-3-3-3-3-3-3---x-3---| 
C |-------------------------------| 
  pm----------------->