Dansety - Hurricane Chords & Tabs

 

Hurricane Chords & Tabs

Dansety Chords & Tabs

Version: 1 Type: Bass Tab 0 ratings
1 star 2 stars 3 stars 4 stars 5 stars
comments

Hurricane Bass Tab

   
Hurricane (Bob Dylan)
As performed by Dansety
tabbed by Daniel van Boeyen (icarus666@zonnet.nl)

Standard tuning (EADG)

Intro:
G|-------------------------|
D|-------------------------|
A|-------------------------|
E|-5---5-5-----1---1-1-----|
   A           F


Verse:
G|-------------------------|
D|-------------------------|
A|----55-77-55----11-33-11-|
E|-55----------11----------|
   A           F

[ Tab from: http://www.guitartabs.cc/tabs/d/dansety/hurricane_btab.html ]
Chorus:
G|---------------------------------------
D|---------------------------------------
A|-3-----------0-1-2-3-------------0-2-3-
E|----------1-----------------1----------
   C        F        C        F

    chorus continued:
-------------------------------------
-------------------------------------
-55555555-33333333-55555555-33333333-
-------------------------------------
 D        C        D        C

    chorus continued:
----------------------------|
----------------------------|
----------33333333----------|
-11111111----------33333333-|
 F        C        G

That's about it. I'm sure you know when to play what,
and the timing is not tabbed but I'm it's not so hard
to do. It's an easy song to play though your fingers
will start to hurt after 10 minutes ;)

Greetz from holland.
Comments