Danny Elfman - This Is Halloween Chords & Tabs

 

This Is Halloween Chords & Tabs

Danny Elfman Chords & Tabs

Version: 2 Type: Tab

This Is Halloween Tab

----------------------------------------------------------------------------
			     SONG NAME - Band Name
----------------------------------------------------------------------------
Tabbed by:King ofKumbucha
Tuning:Standard

I saw a video of Buckethead playing this as an opening to one of his songs and I thought
was cool.  I made it up so I'm just going by the way it sounds...Play with a lot of
and be sure to use some Palm muting on the 5th and 6th string part.  You could also play 
with power cords as long as you use the same intervals and adjust the frets and strings accordingly.
Enjoy.

e|-3--3--3--3--3-4-1-1---1--1--1--1--1-3-4-3|
B|------------------------------------------|
G|------------------------------------------|
D|------------------------------------------|
A|------------------------------------------|
E|------------------------------------------|
[ Tab from: http://www.guitartabs.cc/tabs/d/danny_elfman/this_is_halloween_tab_ver_2.html ]
e|3--3--3--4--6-4-3-1--1--1--1--3-4-3--------------------------------------|
B|------------------------------------4-3----------------------------------|
G|-------------------------------------------------------------------------|
D|-------------------------------------------------------------------------|
A|-------------------------------------------------------------------------|
E|-------------------------------------------------------------------------|
Now P.M.
e|-------------------------------------------------------------------------|
B|-------------------------------------------------------------------------|
G|-------------------------------------------------------------------------|
D|-------------------------------------------------------------------------|
A|-6--6--6--4-3--6--6--6--4-3--6--------------2--3--2----------------------|
E|--------------------------------6--6--4-3-1------------------------------|

e|-------------------------------------------------------------------------|
B|-------------------------------------------------------------------------|
G|-------------------------------------------------------------------------|
D|-------------------------------------------------------------------------|
A|-6--6--6--4-3--6--6--6--4-3--643-643-------------------------------------|
E|-------------------------------------643-643-----------------------------|