Danko Jones - Soul On Ice Chords & Tabs

 

Soul On Ice Chords & Tabs

Danko Jones Chords & Tabs

Version: 1 Type: Tab 0 ratings
1 star 2 stars 3 stars 4 stars 5 stars
comments

Soul On Ice Tab

play these as intro
main riff intro
(I was born in fire ....) play as needed
e|------------------------------------------------------------------------|
b|------------------------------------------------------------------------|
g|------------------------------------------------------------------------|
D|------------------------------------------------------------------------|
A|-2-2-2-2-2--2-2-2-------------------------------------------------------|
E|-3-0-0-0-0--3-0-0-------------------------------------------------------|
choures1
(don't get me wrong this ain't a cry 4 help...)
e|--------------------------------------------------------------|
b|--------------------------------------------------------------|
g|----------77777777--------------------------------------------|
D|-77777777-77777777--------------------------------------------|
A|-77777777-55555555--------------------------------------------|
E|-55555555-----------------------------------------------------|
choures 2
(i got a soul on ice frozen to the bone) repeat as needed listen to the song to be 4 shure
e|-----------------------------------------|
b|-----------------------------------------|
g|-----------------------------------------|
D|-5-2--5-2-7------------------------------|
A|-5-2--5-2-7------------------------------|
E|-3-0--3-0-5------------------------------|
solo
e|-----3-----------------------3---------------------------------------------|
b|-3-5---3-5---------------3-5---3-5---------5-3------------3-----5----------|
g|-----------2-2-4-------------------2-2-4-------5-5-3-----------------------|
D|-----------------5-5-7-------------------5~---------4-4-2---4-2---5-0-2----|
A|-----------------------7---------------------------------------------------|
E|---------------------------------------------------------------------------|

you can also slide these not's wat i think sounds better
e|------------------------10--------------------------13-13-13-13-----|
b|-----------------------9----12-12-12-12-12-12-12-12-----------------|
g|--------------------10----------------------------------------------|
D|4-5-4-5-7-5-7-9-7-9-------------------------------------------------|
A|--------------------------------------------------------------------|
E|--------------------------------------------------------------------|

use the second part as out going solo with the choures 2


song:

main riff
choures 1  one time
choures2   play as needed
main riff
choures 1
choures 2
solo part 1&2
choures 2
after a wile solo the second part is played in the choures


this is my first tab so injoy
[ Tab from: http://www.guitartabs.cc/tabs/d/danko_jones/soul_on_ice_tab.html ]
Comments