Danko Jones - Love Is Unkind Chords & Tabs

 

Love Is Unkind Chords & Tabs

Danko Jones Chords & Tabs

Version: 1 Type: Bass Tab

Love Is Unkind Bass Tab

Band: Danko Jones
Song: Love is Unkind
Album: Born a Lion
Bassist: John "JC" Calabrese

INTRO
                x8                        x7
G|---------------|----------------------------|
D|---------------|----5--5-5-3----------------|
A|---------------|----------------------------|
E|----3--3-3-1---|----------------------------|

G|----6-6-6-5-3-------------------------------|
D|--------------5-3-5-------------------------|
A|--------------------------------------------|
E|--------------------------------------------|

VERSE
                x7
G|---------------|----6-6-6-5-3---------------|
D|---------------|--------------5-3-5---------|
A|---------------|----------------------------|
E|----3--3-3-1---|----------------------------|

                x7
G|---------------|----6-6-6-5-3---------------|
D|---------------|--------------5-3-5---------|
A|---------------|----------------------------|
E|----3--3-3-1---|----------------------------|

                                          x2
G|----------------3-3-----6-6-6-5-3-----------|
D|----5--5-5-3--5-----3-------------5-3-5-----|
A|--------------------------------------------|
E|--------------------------------------------|
[ Tab from: http://www.guitartabs.cc/tabs/d/danko_jones/love_is_unkind_btab.html ]
CHORUS
                                          x2
G|--------------------------------------------|
D|--------------------------------------------|
A|--------------------------------------------|
E|---33333333-66666666-88888888-33333333------|

INTERLUDE
                                         x16
G|--------------------------------------------|
D|--------------------------------------------|
A|--------------------------------------------|
E|---3-3-3-3-3-3-301--------------------------|

CHORUS
                                         x4
G|--------------------------------------------|
D|--------------------------------------------|
A|--------------------------------------------|
E|---33333333-66666666-88888888-33333333------|

                   x15
G|--------------------|----6-6-6-5-3----------|
D|--------------------|--------------5-3-5----|
A|--------------------|-----------------------|
E|---3-3-3-3-3-3-301--|-----------------------|

                                         x4
G|----------------3-3-----6-6-6-5-3-----------|
D|----5--5-5-3--5-----3-------------5-3-5-----|
A|--------------------------------------------|
E|--------------------------------------------|

OUTRO
                      x4
G|----6-6-6-5-3----------|--------------------|
D|--------------5-3-5----|--------------------|
A|-----------------------|--------------------|
E|-----------------------|---3//--------------|

I'm pretty sure this is correct, if you think otherwise let me know i'll change it.