Danko Jones - Bounce Chords & Tabs

 

Bounce Chords & Tabs

Danko Jones Chords & Tabs

Version: 2 Type: Tab 0 ratings
1 star 2 stars 3 stars 4 stars 5 stars
comments

Bounce Tab

   
Bounce by Danko Jones

Tabber - Jake Chen

Corrections and Comments to darc_blade@hotmail.com


Intro - There's the bass accompaniment too... 

E|---|
B|---|
G|---|
D|-6-|
A|-4-|
E|---|

Bass Part

G|-4-6-6-|
D|-------|
A|-------|
E|-------|

G|-6-4-|
D|-----|
A|-----|
E|-----|

G|-----|
D|-4-2-|
A|-----|
E|-----|

Verse - It's basically all bass, until the part right before the chorus
        then Danko begins playing the riff below and during the chorus.

E|-------------------------|
B|-------------------------|
G|-------------------------|
D|-6-6--6-6--6-6--6-6--6-6-|
A|-4-4--4-4--4-4--4-4--4-4-| 
E|-------------------------|

- "I love your thigh high boots..."
[ Tab from: http://www.guitartabs.cc/tabs/d/danko_jones/bounce_tab_ver_2.html ]
E|---|
B|---|
G|---|
D|-4-|
A|-4-|
E|-2-|

Chorus - "So baby c'mon, and take it all off..." 

E|------------------------------|
B|------------------------------|
G|-4-3--4-3--4-3--4-3--4-3--4-3-|
D|-4-3--4-3--4-3--4-3--4-3--4-3-|
A|-2-1--2-1--2-1--2-1--2-1--2-1-|
E|------------------------------|

Solo 

E|-----------------|
B|-5h7p5-----------|
G|-----------------|
D|-------2h4p2-----|
A|-------------2-4-|
E|-----------------| x2

E|---------------|
B|---------------|
G|-----------4-6-|
D|-----2-4-6-----|
A|-2-4-----------|
E|---------------| x2

Riff played at end of chorus at random parts of the song

E|-----|
B|-7-5-|
G|-----|
D|-----|
A|-----|
E|-----|

OR 

E|-----------------|
B|-5h7p5-----------|
G|-----------------|
D|-------2h4p2-----|
A|-------------2-4-|
E|-----------------|
Comments