Danko Jones - Bounce Chords & Tabs

 

Bounce Chords & Tabs

Danko Jones Chords & Tabs

Version: 1 Type: Tab 0 ratings
1 star 2 stars 3 stars 4 stars 5 stars
comments

Bounce Tab

Intro:
e|---------------------------------------|
B|---------------------------------------|
G|---------------------------------------| 
D|-6-6------6-6------6-6--6-6--6-6-------| x4
A|-4-4------4-4------4-4--4-4--4-4-------|
E|---------------------------------------|

Verse:
e|------------------------------------------------------------------|
B|------------------------------------------------------------------|
G|------------------------------------------------------------------|
D|-4--------------6-6--6-6-6--6-6-6--6-6-6--6-----------------------|
A|-4--------------4-4--4-4-4--4-4-4--4-4-4--4-----------------------|
E|-2----------------------------------------------------------------|


e|------------------------------------------------------------------|
B|-----------------------------------7~-5~~-------------------------|
G|------------------------------------------------------------------|
D|-4--------------6-6--6-6-6--6-6-6---------------------------------|
A|-4--------------4-4--4-4-4--4-4-4---------------------------------|
E|-2----------------------------------------------------------------|

Chorus:
e|------------------------------------------------------------------|
B|------------------------------------------------------------------|
G|------------------------------------------------------------------|
D|-4----3----4----3----4----3----4----3----6-6--6-6-6--6-6-6--6-6-6-|
A|-2----1----2----1----2----1----2----1----4-4--4-4-4--4-4-4--4-4-4-|
E|------------------------------------------------------------------|

e|------------------------------------------------------------------|
B|------------------------------------------------------------7~-5~~|
G|------------------------------------------------------------------|
D|-4----3----4----3----4----3----4----3----6-6--6-6-6--6-6-6--------|
A|-2----1----2----1----2----1----2----1----4-4--4-4-4--4-4-4--------|
E|------------------------------------------------------------------|

Verse:
e|------------------------------------------------------------------|
B|----------------------------7~-5~~~~------------------------------|
G|------------------------------------------------------------------|
D|-4--------------6-6--6-6-6----------------------------------------|
A|-4--------------4-4--4-4-4----------------------------------------|
E|-2----------------------------------------------------------------|

e|------------------------------------------------------------------|
B|-----------------------------------7~-5~~-------------------------|
G|------------------------------------------------------------------|
D|-4--------------6-6--6-6-6--6-6-6---------------------------------|
A|-4--------------4-4--4-4-4--4-4-4---------------------------------|
E|-2----------------------------------------------------------------|

Chorus:
e|------------------------------------------------------------------|
B|------------------------------------------------------------------|
G|------------------------------------------------------------------|
D|-4----3----4----3----4----3----4----3----6-6--6-6-6--6-6-6--6-6-6-|
A|-2----1----2----1----2----1----2----1----4-4--4-4-4--4-4-4--4-4-4-|
E|------------------------------------------------------------------|

e|------------------------------------------------------------------|
B|------------------------------------------------------------------|
G|------------------------------------------------------------------|
D|-4----3----4----3----4----3----4----3----6-6--6-6-6--6-6-6--6-6-6-|
A|-2----1----2----1----2----1----2----1----4-4--4-4-4--4-4-4--4-4-4-|
E|------------------------------------------------------------------|
[ Tab from: http://www.guitartabs.cc/tabs/d/danko_jones/bounce_tab.html ]
Solo:
e|------------------------------------------------------------------|
B|-5x7p5---------------------5x7p5----------------------------------|
G|------------------------------------------------------------------|
D|--------2x4p2---------------------2x4p2---------------------------|
A|---------------2-x-2--4~-----------------2-x-2--4~----------------|
E|------------------------------------------------------------------|

e|------------------------------------------------------------------|
B|------------------------------------------------------------------|
G|-------------2--4--6~~--------------2--4--6~~---------------------|
D|-------2--4-------------------2--4--------------------------------|
A|-2--4-------------------2--4--------------------------------------|
E|------------------------------------------------------------------|

Chorus:
e|------------------------------------------------------------------|
B|------------------------------------------------------------7~-5~~|
G|------------------------------------------------------------------|
D|-4----3----4----3----4----3----4----3----6-6--6-6-6--6-6-6--------|
A|-2----1----2----1----2----1----2----1----4-4--4-4-4--4-4-4--------|
E|------------------------------------------------------------------|

e|------------------------------------------------------------------|
B|---------------------------------------5x7p5----------------------|
G|------------------------------------------------------------------|
D|-4----3----4----3----4----3----4----3---------2x4p2---------------|
A|-2----1----2----1----2----1----2----1----------------2-x-2--4~~---|
E|------------------------------------------------------------------|

Verse:
e|------------------------------------------------------------------|
B|------------------------------------------------------------------|
G|------------------------------------------------------------------|
D|------------------------------------------------------------------|
A|-4~~--------------------------------------------------------------|
E|------------------------------------------------------------------|

e|------------------------------------------------------------------|
B|-----------------------------------7~-5~~-------------------------|
G|------------------------------------------------------------------|
D|-4--------------6-6--6-6-6--6-6-6---------------------------------|
A|-4--------------4-4--4-4-4--4-4-4---------------------------------|
E|-2----------------------------------------------------------------|

e|------------------------------------------------------------------|
B|----------------5x7p5---------------------------------------------|
G|------------------------------------------------------------------|
D|-4---------------------2x4p2--------------------------------------|
A|-4----------------------------2-x-2--4~~--------------------------|
E|-2----------------------------------------------------------------|

Chorus:
e|------------------------------------------------------------------|
B|---------------------------------------5x7p5----------------------|
G|------------------------------------------------------------------|
D|-4----3----4----3----4----3----4----3---------2x4p2---------------| x3
A|-2----1----2----1----2----1----2----1----------------2-x-2--4~~---|
E|------------------------------------------------------------------|

e|------------------------------------------------------------------|
B|------------------------------------------------------------------|
G|------------------------------------------------------------------|
D|-4----3----4----3----4----3----4----3--6-6------------------------|
A|-2----1----2----1----2----1----2----1--4-4------------------------|
E|------------------------------------------------------------------|
Comments