Danko Jones - Bounce Chords & Tabs

 

Bounce Chords & Tabs

Danko Jones Chords & Tabs

Version: 1 Type: Bass Tab 0 ratings
1 star 2 stars 3 stars 4 stars 5 stars
comments

Bounce Bass Tab

   
Bounce - by Danko Jones
*******************

This song is extremely easy to play but to my suprise 
no one tabbed it out. So here it is.

Standard Tuning: G
                 D
                 A
                 E

~ = let the note ring
< = slide down
> = slide up

Intro (This is the best part of the song too bad it's 
only played 3 times)

G-----------------------------------
D-9-11-11----11-9~------------------
A-----------------------------------
E--------------------14<12~--<2~--0~

The second time it's played it goes like this.
[ Tab from: http://www.guitartabs.cc/tabs/d/danko_jones/bounce_btab.html ]
G-----------------------------------
D-9-11-11----11-9~------------------
A-----------------------------------
E--------------------14<12~--<0~--2~

And the third time is played like the first one.


Verse

G-------------------------------------------------------
D-------------------------------------------------------
A-444-444-444-444-444-444-444-444--------444-444-444-444
E---------------------------------0~--------------------


Chourus

G--------------------------------
D--------------------------------
A-2-1-2-1-2-1-2-1-444-444-444-444
E--------------------------------


That's the whole thing. If there's any mistakes
please e-mail me.

hornklof@sprint.ca
	
-Karl
Comments