Daniels Window - Open The Eyes Of My Heart Chords & Tabs

 

Open The Eyes Of My Heart Chords & Tabs

Daniels Window Chords & Tabs

Version: 1 Type: Tab 0 ratings
1 star 2 stars 3 stars 4 stars 5 stars
comments

Open The Eyes Of My Heart Tab

daniels window is awesome. theyre a not very popular Christian band ive seen them in
concert a couple times and theyre great. this is, in my opinion, their best song...
remake of the old one obviously. enjoy.
tabbed by xxazizzlexx@sbcglobal.net

tuning: standard

listen to the cd to get the timing. the palm muting in the verse is really fast, and
kinda tricky but it sounds awesome when you get the time right.

intro:
e--------------------------------------------------------------------------|
b--------------------------------------------------------------------------|
g--(99)--77777777--77777777--77777777--77777777----------------------------|
d--(77)--77777777--77777777--77777777--77777777--99999999---10101010\9999--|
a--------55555555--55555555--44444444--44444444--99999999----8-8-8-8\6666--|
E------------------------------------------------77777777------------------|



(heavy distortion)
verse:
e--------------------------------------------------------------|
b--------------------------------------------------------------|
g--77-xx-xx-77----77-xx-xx-77----------------------------------|
d--77-xx-xx-77-x4-77-xx-xx-77-x2--99-xx-xx-99---55-xx-xx-55----| 
a--55-xx-xx-55----44-xx-xx-44-----99-xx-xx-99---55-xx-xx-55----|
E---------------------------------77-xx-xx-77---33-xx-xx-33----|
[ Tab from: http://www.guitartabs.cc/tabs/d/daniels_window/open_the_eyes_of_my_heart_tab.html ]
e-------------------------------------------------------------------|
b-------------------------------------------------------------------|
g--77xxxx77----77xxxx77---------------------------------------------|
d--77xxxx77-x4-77xxxx77-x2---99xxxx99--55xxxx55---10101010\9999-----| 
a--55xxxx55----44xxxx44------99xxxx99--55xxxx55----8-8-8-8\8888-----|
E----------------------------77xxxx77--33xxxx33---------------------|
 


prechorus thing:
e-------------------------------------------------------------------|
b-------------------------------------------------------------------|
g----77777777--77777777--77777777--77777777-------------777777777---|
d----77777777--77777777--77777777--77777777--99999999---777777777---| 
a----55555555--55555555--44444444--44444444--99999999---555555555---|
E--------------------------------------------77777777---------------|

e---------------------------------------------------------------------|
b---------------------------------------------------------------------|
g----77777777--77777777--77777777--77777777-----------10101010\9999---|
d----77777777--77777777--77777777--77777777--99999999--8-8-8-8\7777---|
a----55555555--55555555--44444444--44444444--99999999-----------------|
E--------------------------------------------77777777-----------------|

e--------------|
b--------------|
g---77777777---|
d---77777777---|
a---55555555---|
E--------------|



chorus (2nd time theres some palm muting):
e-------------------------------------------------------------|
b-------------------------------------------------------------|
g-------------------------------------------------------------|
d--777777--999999--999999--777777--777777--999999--7777/99----|
a--777777--999999--999999--777777--777777--999999--7777/99----|
E--555555--666666--666666--555555--555555--777777--5555/77----|


layout:
intro
verse 
prechorus thing
chorus
prechorus thing
chorus
verse
chorus
prechorus thing

hey questions corrections or comments email me at xxazizzlexx@sbcglobal.net
Comments