Daniele Silvestri - Hold Me Chords & Tabs

 

Hold Me Chords & Tabs

Daniele Silvestri Chords & Tabs

Version: 1 Type: Bass Tab 0 ratings
1 star 2 stars 3 stars 4 stars 5 stars
comments

Hold Me Bass Tab

Daniele Silvestri is a famous italian alternative singer...that's not his most famous 
but it has a pretty bassline

Bass starts after 56"

h=hold /=slide to

G------------|-----------------------------------------------|
D------------|-----------------------------------------------|
A--12--10-10-|-----------------------------------------------|
E-------12---|-88---55---1010---33---12/88---55---1015h---33-|

G----------------------------|
D----------------------------|
A----------------------------| x2
E----88---55---1010---33-----|

G------------------------------------------------------------------|
D------------------------------------------------------------------|
A------------------------------------------------------------------|
E---35788888888-55555555--1010---33---88888888-55555555--1010---33-|

G--------------------------------------------------------------------|
D------------------------------------------------------------------7-|
A----------------------------------------------------------------57--|
E--5h------55555555-1010---77---1215h--55---1010---77---1212---57----|
[ Tab from: http://www.guitartabs.cc/tabs/d/daniele_silvestri/hold_me_btab.html ]
G--------------------------------------15--15-----------------|
D----------------------------------15-17-17-------------------|
A--------------------------------------------15--12--10-------|
E--1010---77---1212---55---1010---7--------------------121212-|

G--------------------------------------|
D--------------------------------------|
A--------------------------------------| x2  then rest
E--1010101010101010-77777777--1212--55-|

     outro
G--------------------------------------------------------------------------|
D---9-------9-------------11-129----------9--------9-----------------------|
A-12--12--12--12--12-9-129-------1212---12-1212--12-1212-129-12129-129-129-|
E--------------------------------------------------------------------------|

G----------------------------------------|
D------------------------------7-7--7--7-|
A----------------------------10-9-10-10--|
E--1010--101010--1010--101010------------|

G------------------------------------------------|
D-------------------------7-7--------------------|
A------------------------9-9-77777777------------|
E-1010101010101010--7777-------------55555555----|

G----------------------------------------------------------------------------|
D---------7-7------------------------------------7-7------7-7----------------|
A--------9-9---------77777777-------------------9-9------9-9---7777777-------|
E10101010----77777777--------55555555---10101010----7777------------55555555-|

G---------------------------------------|
D-----------7-7------7-7----------------|
A----------9-9------9-9---7h------------|
E--10101010-----7777---------5h---10h---|
Comments