Daniel Lioneye - King Of Rock And Roll Chords & Tabs

 

King Of Rock And Roll Chords & Tabs

Daniel Lioneye Chords & Tabs

Version: 3 Type: Tab 0 ratings
1 star 2 stars 3 stars 4 stars 5 stars
comments

King Of Rock And Roll Tab

   
-------------------------------------------------------------------------------
	          Daniel Lioneye- The King of Rock and Roll
-------------------------------------------------------------------------------
#----------------------------------PLEASE NOTE---------------------------------# 
#This file is the author's own work and represents their interpretation of the # 
#song. You may only use this file for private study, scholarship, or research. # 
#------------------------------------------------------------------------------## 
Time: Wednesday, 06 July, 2005 12:08:26 AM to 01:29:33 AM
Tabbed by: Kevin Sawicki
Email: kevafi@msn.com

e|---------------------------------------------------------------------------|
B|---------------------------------------------------------------------------|
G|---------------------------------------------------------------------------|
D|---------------------------------------------------------------------------|
A|-------------0h2-5------------0h2-5-------------0h2-5---------------0h2-5--|
E|-0-3-0-3-0-3-------0-3-0-3-0-3-------0-3-0-3-0-3-------0-3-0-3-0-3---------|

e|---------------------------------------------------------------------------|
B|---------------------------------------------------------------------------|
G|---------------------------------------------------------------------------|
D|---------------------------------------------------------------------------|
A|----------------------------------------------------0h2-5------------------|
E|---------------------------------------0-3-0-3-0-3-------------------------|
  I'm gonna give you what you need...                         I'm gonna make 
e|---------------------------------------------------------------------------|
B|---------------------------------------------------------------------------|
G|---------------------------------------------------------------------------|
D|---------------------------------------------------------------------------|
A|-------------------------------------0h2-5---------------------------------|
E|----------------------0-3-0-3-0-3-------------5------5------5------5-------|
   Your Ears Bleed...                           Rockn' roll!  Rockn' roll!
e|---------------------------------------------------------------------------|
B|---------------------------------------------------------------------------|
G|---------------------------------------------------------------------------|
D|---------------------------------------------------------------------------|
A|-----------------------------------------------0h2-5-----------------0h2-5-|
E|-3--3----3----0--3---0--0----------0-3-0-3-0-3----------0-3-0-3-0-3--------|
   I'm the King of Rockn' roll!
e|---------------------------------------------------------------------------|
B|---------------------------------------------------------------------------|
G|---------------------------------------------------------------------------|
D|---------------------------------------------------------------------------|
A|----------------------------------------------------0h2-5------------------|
E|--------------------------------------0-3-0-3-0-3--------------------------|
  I'm gonna give you what you want...                       A jigely wigely 
e|---------------------------------------------------------------------------|
B|---------------------------------------------------------------------------|
G|---------------------------------------------------------------------------|
D|---------------------------------------------------------------------------|
A|--------------------------------------------------0h2-5--------------------|
E|------------------------------------0-3-0-3-0-3---------5---5--5-----------|
   jigely wigely jigely wigely show...                    Rockn' roll!  
e|---------------------------------------------------------------------------|
B|---------------------------------------------------------------------------|
G|---------------------------------------------------------------------------|
D|---------------------------------------------------------------------------|
A|-----------------------------------------------------------0h2-5-----------|
E|-5---5--5--------3---3---3----0--3---0--0-----0-3-0-3-0-3------------------|
   Rockn' roll!    I'm the King of Rockn' Roll!
e|---------------------------------------------------------------------------|
B|---------------------------------------------------------------------------|
G|---------------------------------------------------------------------------|
D|---------------------------------------------------------------------------|
A|--------------0h2-5--------------------------------------------------------|
E|--0-3-0-3-0-3--------------------------------------------------------------|



   SOLO
e|---------------------------------------------------------------------------|
B|---------------------------------------------------------------------------|
G|------------------0---------0------------------------------------0-2-2-----|
D|--2-0-2-0-2-0-2-----2-0-------2-2-----2-0-2-0-2-0-2----2-0-2-0-2-----------|
A|-------------------------2-------------------------------------------------|
E|---------------------------------------------------------------------------|

e|---------------------------------------------------------------------------|
B|---2---2-2----0---0-0------------------------------------------------------|
G|-2---2------0---0----------------------------------------------------------|
D|-----------------------2-0-2-0-2-0-2----2-0-2-0-2-0-2---2-2\1/2------------|
A|---------------------------------------------------------------------------|
E|---------------------------------------------------------------------------|
[ Tab from: http://www.guitartabs.cc/tabs/d/daniel_lioneye/king_of_rock_and_roll_tab_ver_3.html ]
e|---------------------------------------------------------------------------|
B|---------------------------------------------------------------------------|
G|---------------------------------------------------------------------------|
D|--0h2----0h2----0h2---------0h2-------0h2-----------0h2--------0h2---------|
A|---------------------------------------------------------------------------|
E|---------------------------------------------------------------------------|
                    uh...     Uh.. hu...   Uh... Hu..  Uh.. Hu...
e|---------------------------------------------------------------------------|
B|---------------------------------------------------------------------------|
G|---------------------------------------------------------------------------|
D|---------------------------------------------------------------------------|
A|---------------------------------------------------------------------------|
E|---------------------------------------------------------------------------|
  ah.......(cracking voice)    (distant and weird voice) VAMOS DANNY!
e|---------------------------------------------------------------------------|
B|---------------------------------------------------------------------------|
G|---------------------------------------------------------------------------|
D|---------------------------------------------------------------------------|
A|--------------------0h2--5++------------------------0h2--5++---------------|
E|-0--3--0--3--0--3----------------0--3--0--3--0--3--------------------------|
   He's the King of Rockn' Roll!   He's the King of Rockn' Roll!
e|---------------------------------------------------------------------------|
B|---------------------------------------------------------------------------|
G|---------------------------------------------------------------------------|
D|---------------------------------------------------------------------------|
A|--------------------0h2--5++------------------------0h2--5++---------------|
E|-0--3--0--3--0--3----------------0--3--0--3--0--3--------------------------|
   He's the King of Rockn' Roll!   He's the King of Rockn' Roll!
e|---------------------------------------------------------------------------|
B|---------------------------------------------------------------------------|
G|---------------------------------------------------------------------------|
D|---------------------------------------------------------------------------|
A|----------------------------------------------------0h2--5++---------------|
E|---------------------------------0--3--0--3--0--3--------------------------|
   They call me the white bombo!   He's the King of Rockn' Roll!
e|---------------------------------------------------------------------------|
B|---------------------------------------------------------------------------|
G|---------------------------------------------------------------------------|
D|---------------------------------------------------------------------------|
A|--------------------------------------------------------0h2--5++-----------|
E|-------------------------------------0--3--0--3--0--3----------------------|
   A rockn' roll rebel inna Babylon!   He's the King of Rockn' Roll!  
e|---------------------------------------------------------------------------|
B|---------------------------------------------------------------------------|
G|---------------------------------------------------------------------------|
D|---------------------------------------------------------------------------|
A|---------------------------------------------------------------------------|
E|-5---5--5------5---5--5--------3---3---3----0--3---0--0--------------------|
   Rockn' roll!  Rockn' roll!    I'm the King of Rockn' Roll!
e|---------------------------------------------------------------------------|
B|---------------------------------------------------------------------------|
G|---------------------------------------------------------------------------|
D|---------------------------------------------------------------------------|
A|---------------------------------------------------------------------------|
E|-5---5--5------5---5--5--------3---3---3----0--3---0--0--------------------|
   Rockn' roll!  Rockn' roll!    I'm the King of Rockn' Roll!
e|---------------------------------------------------------------------------|
B|---------------------------------------------------------------------------|
G|---------------------------------------------------------------------------|
D|---------------------------------------------------------------------------|
A|--------------------0h2--5++------------------------0h2--5++---------------|
E|-0--3--0--3--0--3----------------0--3--0--3--0--3--------------------------|
   He's the King of Rockn' Roll!   He's the King of Rockn' Roll!
                              (ROCKn' ROOOL!)                   (ROCKn' ROOOL!) 
e|---------------------------------------------------------------------------|
B|---------------------------------------------------------------------------|
G|---------------------------------------------------------------------------|
D|---------------------------------------------------------------------------|
A|--------------------0h2--5++------------------------0h2--5++---------------|
E|-0--3--0--3--0--3----------------0--3--0--3--0--3--------------------------|
   He's the King of Rockn' Roll!   He's the King of Rockn' Roll!
                              (ROCKn' ROOOL!)

The Very End is Just A  Jumble Of random notes with the mixture of the line
"He's the King of Rockn' Roll!", so i didn't bother tabing that... 
Hope your like it!
===============================================================================

| / slide up 
| \ slide down
| h hammer-on 
|+ Hold note
Comments