Daniel Lioneye - King Of Rock And Roll Chords & Tabs

 

King Of Rock And Roll Chords & Tabs

Daniel Lioneye Chords & Tabs

Version: 2 Type: Tab 0 ratings
1 star 2 stars 3 stars 4 stars 5 stars
comments

King Of Rock And Roll Tab

   
Daniel Lioneye - The King Of Rock & Roll
----------------------------------------------
Tabbed by: Gibson Freak (aka Mike)
Email: mikegodette@prodigy.net

Tuning: Standard

For all of you who don't know this 
song this is the theme song to Viva La Bam.
Its a very simple song to learn if 
you wanna learn to play a song fully 
with the solo and all. Enjoy!

All you do for the into and first 2 verses is this
e|------------------------------
B|------------------------------
G|------------------------------
D|------------------------------
A|---------------------------7--
E|-0-0-3-0-0-3-0-0-3-0-5h6h7----

Then the chorus is
e|-------------------------------
B|-------------------------------
G|-------------------------------
D|-------------------------------
A|-9-9-9--9-9-9--7-7-7-7-7-7-14--
E|-7-7-7--7-7-7--5-5-5-5-5-5-12\-

Then just go right back to
e|------------------------------
B|------------------------------
G|------------------------------
D|------------------------------
A|---------------------------7--
E|-0-0-3-0-0-3-0-0-3-0-5h6h7----
[ Tab from: http://www.guitartabs.cc/tabs/d/daniel_lioneye/king_of_rock_and_roll_tab_ver_2.html ]
Then the chorus again
e|-------------------------------
B|-------------------------------
G|-------------------------------
D|-------------------------------
A|-9-9-9--9-9-9--7-7-7-7-7-7-14--
E|-7-7-7--7-7-7--5-5-5-5-5-5-12\-

Then the solo is
e|------------------------------------|
B|------------------------------------|
G|-------------------------12---------|
D|-14-12-14-12-14-12-14-12----14-12---|
A|----------------------------------14|
E|------------------------------------|

e|------------------------------------|
B|------------------------------------|
G|-12-------------12-14-12-14-12------|
D|----14-12h14-12-14-14-14-14----14-12|
A|------------------------------------|
E|------------------------------------|

e|------------------------------------|
B|------------------------------------|
G|---------------------16-16-12-------|
D|----14-12---14-12-14----------14----|
A|-14------14-------------------------|
E|------------------------------------|

e|----------------------------------------|
B|-16-16-16-14-14-14----------------------|
G|-16-16-16-14-14-14----------------------|
D|-------------------14-12-14-12-14-12-14-|
A|----------------------------------------|
E|----------------------------------------|

Then you do one more verse but instead of the 
normal riff you do the begining riff
of the solo. All and all I think its 
mostly accurate. Rock on.
| /  slide up
| \  slide down
| h  hammer-on
| p  pull-off
| ~  vibrato
| +  harmonic
| x  Mute note
Comments