Daniel Bedingfield - Wrap My Words Around You Chords & Tabs

 

Wrap My Words Around You Chords & Tabs

Daniel Bedingfield Chords & Tabs

Version: 1 Type: Tab 0 ratings
1 star 2 stars 3 stars 4 stars 5 stars
comments

Wrap My Words Around You Tab

   
Here's my 2nd tab for this song, based on the comments. Thanks for the comments. I've 
changed the intro+verse, and the chord-names in the chorus. I need to listen to it again, 
get the lyrics incorporated, and so on, so this tab is still sucky ^_^ haha!

Listen to song to get the right rhythm and timing. There is also a little change in the 
part, a little bridge, I haven't figured out yet.
Correct! Improve! ^_^
[ Tab from: http://www.guitartabs.cc/tabs/d/daniel_bedingfield/wrap_my_words_around_you_tab.html ]
Intro + Verse:
      C#m        B         F#
e|---4-4-4-----2-2-2-----3-3-3--|
B|---5-5-5-----4-4-4-----3-3-3--|
G|---6-6-6-----4-4-4-----4-4-4--|
D|---6-6-6-----4-4-4-----5-5-5--|
A|---4-4-4-----2-2-2-----5-5-5--|
E|---0-0-0-----0-0-0-----3-3-3--|

Chorus: (New rhythm)
       F#            A             B
e|---3-3-3---------5-5-5---------7-7-7-------------------------------------|
B|---3-3-3---------5-5-5---------7-7-7-------------------------------------|
G|---4-4-4---------6-6-6---------8-8-8-------------------------------------|
D|---5-5-5---------7-7-7---------9-9-9-------------------------------------|
A|---5-5-5---------7-7-7---------9-9-9-------------------------------------|
E|---3-3-3---------5-5-5---------7-7-7-------------------------------------|

Enjoy it.
Comments