Daniel Bedingfield - Gotta Get Thru This Chords & Tabs

 

Gotta Get Thru This Chords & Tabs

Daniel Bedingfield Chords & Tabs

Version: 3 Type: Tab 0 ratings
1 star 2 stars 3 stars 4 stars 5 stars
comments

Gotta Get Thru This Tab

-------------------------------------------------------------------------------
			    Gotta get thru this- Daniel Bedingfield
-------------------------------------------------------------------------------
Tabbed by:Jammin_chicky
Email:Soph_13064@hotmail.com

Tuning:standard

really fun song t play if ur cleva enough to sing along with it, this one sounds great acoustic!!have fun!

    If only....i....can....get thru this
e|---------------------------------------------------------------------------|
B|---------------------------------------------------------------------------|
G|------------------------------5-6----------------5-6-----------------------|
D|----------------------------3-5-6-6-----6-5-3----5-6-6----6-5--------------|
A|----------------------------3-3-4-6-----6-5-3----3-4-6----6-5--------------|
E|----------------------------1-----4-----4-3-1--------4----4-3--------------|
do this 5 times...should be 'I gotta get thru this, i gotta get thru this' on the 3rd time!
[ Tab from: http://www.guitartabs.cc/tabs/d/daniel_bedingfield/gotta_get_thru_this_tab_ver_3.html ]
e|---------------------------------------------------------------------------|
B|---------------------------------------------------------------------------|
G|---------------------------------------------------------------------------|
D|--3--5--4----88-66-55-33---------------------------------------------------|
A|--3--5--4----88-66-55-33---------------------------------------------------|
E|--1--3--4----66-44-33-11---------------------------------------------------|


e|---------------------------------------------------------------------------|
B|---------------------------------------------------------------------------|
G|---------------------------------------------------------------------------|
D|--3--5--4-----------6-5----------------------------------------------------|
A|--3--5--4-----------6-5----------------------------------------------------|
E|--1--3--4-----------4-3----------------------------------------------------|
^^^^^^^^^^^^^^^
On this bit do the first 3 chords in a strum for 8 quick beats

the rest of the song is just these bits repeated, then theres a bit at the end do this in a nice slow strum:
e|---------------------------------------------------------------------------|
B|---------------------------------------------------------------------------|
G|----6---------6-5----------------------------------------------------------|
D|--3-6-6-----3-6-5----------------------------------------------------------|
A|--3-4-6-----3-4-3----------------------------------------------------------|
E|--1---4-----1--------------------------------------------------------------|

rite that it ppl! get in touch if any problem or tips, x
Comments