Daniel Bedingfield - Gotta Get Thru This Chords & Tabs

 

Gotta Get Thru This Chords & Tabs

Daniel Bedingfield Chords & Tabs

Version: 2 Type: Tab 0 ratings
1 star 2 stars 3 stars 4 stars 5 stars
comments

Gotta Get Thru This Tab

----0----------3-----3--2---0----------3--|
--------2-/-3-------------------2-/-3-----|
------------------------------------------|
------------------------------------------|
------------------------------------------|
------------------------------------------|
[ Tab from: http://www.guitartabs.cc/tabs/d/daniel_bedingfield/gotta_get_thru_this_tab_ver_2.html ]
----0---------3------3--2---0-----------3-|
-------2-/-3---------------------2-/-3----|
------------------------------------------|
------------------------------------------|
------------------------------------------|
------------------------------------------|

im sure this works if you just repeat it.let me know what you think.

this is my first tab so it took me ages!!!!!
Comments