Danger - Enemy Chords & Tabs

 

Enemy Chords & Tabs

Danger Chords & Tabs

Version: 1 Type: Tab 0 ratings
1 star 2 stars 3 stars 4 stars 5 stars
comments

Enemy Tab

                                 ENEMY
                               By:Danger
                   Taken from the album "Keep Out" 2004


Intro:
Git 1:
E|-----------------|-----------------|-----------------|-----------------|
B|-----------------|-----------------|-----------------|-----------------|
G|-9--7--9---------|--9-7-9-10--9--7-|-10-9-10---------|--9-7-9-10--9--7-|
D|---------7-------|-----------------|-----------7-----|-----------------|
A|-----------------|-----------------|-----------------|-----------------|
E|-----------------|-----------------|-----------------|-----------------|
 
Git 2:   
E|-----------------|-----------------|-----------------|-----------------|
B|-----------------|-----------------|-----------------|-----------------|
G|-2---------------|-(2)-------------|-----------------|-----------------|
D|-2---------------|-(2)-------------|-3---------------|-(3)-------------|
A|-0---------------|-(0)-------------|-3---------------|-(3)-------------|
E|-----------------|-----------------|-1---------------|-(1)-------------|

Git 1:
E|-----------------|-----------------|-----------------|-----------------|
B|-----------------|-----------------|-----------------|-----------------|
G|-9--7--9---------|--9-7-9-10--9--7-|-10-9-10---------|--9-7-9-10--9--7-|
D|---------7-------|-----------------|-----------7-----|-----------------|
A|-----------------|-----------------|-----------------|-----------------|
E|-----------------|-----------------|-----------------|-----------------|

Git 2:
E|-----------------|-----------------|-----------------|-----------------|
B|-----------------|-----------------|-----------------|-----------------|
G|-2---------------|-2---------------|-----------------|-----------------|
D|-2---------------|-2---------------|-5---------------|-3-------5-------|
A|-0---------------|-0---------------|-5---------------|-3-------5-------|
E|-----------------|-----------------|-3---------------|-1-------3-------|

Verse riff:
E|---------------------------------|---------------------------------|
B|---------------------------------|---------------------------------|
G|---------------------------------|-------------------------5--7----|
D|---------5-----7---------5-------|---------5-----7---------3--5----|
A|-0-0-0-0---0-0-----0-5-7---7-0-3-|-0-0-0-0---0-0-----0-5-7---------|
E|---------------------------------|---------------------------------|
[ Tab from: http://www.guitartabs.cc/tabs/d/danger/enemy_tab.html ]
E|---------------------------------|---------------------------------|
B|---------------------------------|---------------------------------|
G|---------------------------------|-5--------------7----------------|
D|---------5-----7---------5-------|-3--------------5----------------|
A|-0-0-0-0---0-0-----0-5-7---7-0-3-|---------------------------------|
E|---------------------------------|---------------------------------|

Bridge:
E|-----------------|-----------------|-----------------|-----------------|
B|-----------------|-----------------|-----------------|-----------------|
G|-5---------------|-7---------------|-9---------------|-10--------------|
D|-5---------------|-7---------------|-9---------------|-10--------------|
A|-0---------------|-0---------------|-0---------------|-0---------------|
E|-----------------|-----------------|-----------------|-----------------|


E|-----------------|-----------------|-----------------|---------------------|
B|-----------------|-----------------|-----------------|---------------------|
G|-----------------|-----------------|-5---------------|-7---5-7---5---------|
D|-7---------------|-8---------------|-3---------------|-5-------8---7-8-5-7-|
A|-5---------------|-5---------------|-----------------|---------------------|
E|-----------------|-----------------|-----------------|---------------------|

Chorus:
E|--------------------------|--------------------------|
B|--------------------------|--------------------------|
G|--------------------------|--------------------------|
D|----5---------------------|-5------------------------|
A|-7--3--7------------------|-3--5--7------------------|
E|-5-----5--5-5-5-5-5-5-5-5-|----3--5--5-5-5-5-5-5-5-5-|

E|--------------------------|--------------------------|
B|--------------------------|--------------------------|
G|--------------------------|-5----------7-------------|
D|----5---------------------|-3----------5-------------|
A|-7--3--7------------------|--------------------------|
E|-5-----5--5-5-5-5-5-5-5-5-|--------------------------|

Soloriff 1
E|-----------------|-----------------|-----------------|-----------------|
B|-----------------|-----------------|-----------------|-----------------|
G|-5---------------|-7---------------|-5---------------|-7---------------|
D|-5---------------|-7---------------|-5---------------|-7---------------|
A|-0---------------|-0---------------|-0---------------|-0---------------|
E|-----------------|-----------------|-----------------|-----------------|

Soloriff2
E|-----------------|-----------------|-----------------|-----------------|
B|-----------------|-----------------|-----------------|-----------------|
G|-----------------|-----------------|-5---------------|-7---------------|
D|-7---------------|-8---------------|-3---------------|-5---------------|
A|-5---------------|-5---------------|-----------------|-----------------|
E|-----------------|-----------------|-----------------|-----------------|

Songorder:
intro x1
vers x4
Bridge x1
Chorus x2
vers x3
Bridge x1
Chorus x2
Soloriff 1 x2
Soloriff 2 x4
Chorus x2
vers x2
Comments