Dandy Warhols - Welcome To The Monkey House Chords & Tabs

 

Welcome To The Monkey House Chords & Tabs

Dandy Warhols Chords & Tabs

Version: 1 Type: Tab 0 ratings
1 star 2 stars 3 stars 4 stars 5 stars
comments

Welcome To The Monkey House Tab

Song: Welcome To The Monkey House
Band: Dandy Warhols
Album: Welcome To The Monkey House (track 1)

Intro
x=muted
E--5x------------------------|  play muted x2
A--7x------------------------|
D--7x------------------------|
G----------------------------|
B----------------------------|
e----------------------------|

Verse

Wire Is Coming Back Again. Elastica got sued by them

E-5x-----------------0x--------------------5x-------|
A-7x-----------------2x----5x--------------7x-------|
D-7x-----------------2x----7x--------------7x-------|
G--------------------------7x-----------------------|
B---------------------------------------------------|
e---------------------------------------------------|


When Michael Jackson dies we're covering Blackbird
E5x---------------------0x---------------------5x-|
A7x---------------------2x----------------5-5--7x-|
D7x---------------------2x----------------7- 7-7x-|
G-----------------------------------------7- 7----|
B-------------------------------------------------|
e-------------------------------------------------|
[ Tab from: http://www.guitartabs.cc/tabs/d/dandy_warhols/welcome_to_the_monkey_house_tab.html ]
And won't it Be Absurd then when no onw knows what song they just heard
E5x----------------0x-------------------------------5x-----------------|
A7x----------------2x----------5x-------------------7x-----------------|
D7x----------------2x----------7x-------------------7x-----------------|
G------------------------------7x--------------------------------------|
B----------------------------------------------------------------------|
e----------------------------------------------------------------------|

Unless someone on the radio tells them first
E-5x-------------------0x--------------5x----|
A-7x-------------------2x----5-5-------7x----|
D-7x-------------------2x----7-7-------7x----|
G----------------------------7-7-------------|
B--------------------------------------------|
e--------------------------------------------|

So come on come on come on come
E-5x--------------------------0x---|
A-7x--------------------------2x---|
D-7x--------------------------2x---|
G----------------------------------|
B----------------------------------|
e----------------------------------|

Come on Come on Come on come all
E-----------------------5x-------|
A-5x--------------------7x-------|
D-7x--------------------7x-------|
G-7x-----------------------------|
B--------------------------------|
e--------------------------------|

Come on Come on Come on You Monkeys
E-5x-------------------0x----------5x-----|
A-7x-------------------2x---5-5----7x-----|
D-7x-------------------2x---7-7----7x-----|
G---------------------------7-7-----------|
B-----------------------------------------|
e-----------------------------------------|

this tab was created by britties69
email me for any questions or corrections: britties69@mail.gr
Comments