Dandy Warhols - Sleep Chords & Tabs

 

Sleep Chords & Tabs

Dandy Warhols Chords & Tabs

Version: 2 Type: Tab 0 ratings
1 star 2 stars 3 stars 4 stars 5 stars
comments

Sleep Tab

   
                       Dandy Warhols - Sleep


Tuning: Standard tuning
[ Tab from: http://www.guitartabs.cc/tabs/d/dandy_warhols/sleep_tab_ver_2.html ]
Guitar 1
      Em        G        D        A
e:-------0--------2------2--------0---------|
B:---------0--------2------3--------2-------|
G:------------------------------------2-----|
D:---------------------0--------2-----------|
A:----2---------2-------------0-------------|
E:--0---------3-----------------------------|

Guitar 2
Variations of:
e:--0---0-----3-2-3-2-0-|
B:----0---0-3-----------|
G:----------------------|
D:----------------------|
A:----------------------|
E:----------------------|

Such as:
e:--0-------3-2-3-2-0---|
B:----0-0-3-------------|
G:----------------------|
D:----------------------|
A:----------------------|
E:----------------------|
Comments