Dandy Warhols - Nietzsche Chords & Tabs

 

Nietzsche Chords & Tabs

Dandy Warhols Chords & Tabs

Version: 2 Type: Tab 0 ratings
1 star 2 stars 3 stars 4 stars 5 stars
comments

Nietzsche Tab

   
tabbed by Lacan

Standard tunning


Throughout the whole song, this is being played on some kind of guitar,
or stringed instrument:

Strummed, so you time it with the song.

Chords -    E             A                C                A

      |-----0-------------0----------------0----------------0-----
      |-----0-------------2----------------1----------------2-----
      |-----1-------------2----------------0----------------2-----
      |-----2-------------2----------------2----------------2-----
      |-----2-------------0----------------3----------------0-----
      |-----0-----------------------------------------------------

[ Tab from: http://www.guitartabs.cc/tabs/d/dandy_warhols/nietzsche_tab_ver_2.html ]
This next part is played overtop the previos rythm, with another guitar,
could be considered a solo... if you really want to call it that:

      |-0-2-3--5--2--7--3--0-
      |----------------------
      |----------------------   x4
      |----------------------
      |----------------------
      |----------------------

      |-12--10--9--5--7--3--0
      |----------------------
      |---------------------- x2
      |---------------------- 
      |----------------------
      |----------------------

      |-0-2-3--5--2--7--3--0-
      |----------------------
      |----------------------   x2
      |----------------------
      |----------------------
      |----------------------


and that's it. w00h00.

This is my first tabs, so please give me some feedback at
one_winged_soul@hotmail.com
Comments