Dandy Warhols - Mohammed Chords & Tabs

 

Mohammed Chords & Tabs

Dandy Warhols Chords & Tabs

Version: 3 Type: Tab 0 ratings
1 star 2 stars 3 stars 4 stars 5 stars
comments

Mohammed Tab

This is a hard piece to figure out precisely as listening to it sometimes sounds like
two guitars doing the job of one. So this may not be the way they played it but it will
sound right on a single guitar.

Intro:

E|-----------3-----|
B|--------------5--|
G|-----------------|
D|-----------------|
A|-----2-----------|
E|--0-----0--------|

E|-----------3-----|
B|--------------5--|
G|-----------------|
D|-----------------|
A|--------2--------|
E|--0--0-----------|

Verse:

E|-----------3-(3)----------------2-----------------|  x3
B|-----------------5-----5-----------3--------2-----|
G|--------4-----------4--------2-----------------2--|
D|--------------------------0--------------2--------|
A|-----2--------------------------------0-----------|
E|--0-----------------------------------------------|

E|--------------2-----------------------0-----------|
B|--------3--------3-----3--------2--------2-----2--|
G|-----2-----2--------2--------------2--------2-----|
D|--0--------------------------2--------------------|
A|--------------------------0-----------------------|
E|--------------------------------------------------|
[ Tab from: http://www.guitartabs.cc/tabs/d/dandy_warhols/mohammed_tab_ver_3.html ]
Repeat Verse x5, on 5th time end:

E|--------------|
B|--------3-----|
G|-----2-----2--|
D|--0-----------|
A|--------------|
E|--------------|

Chorus:

E|--3-- --2-- --0--| x7
B|--5-- --3-- --2--|
G|--4-- --2-- --2--|
D|--2-- --0-- --2--|
A|--2-- ----- --0--|
E|--0-- ----- -----|

E|--------------2-----------------------0-----------|
B|--------3--------3-----3--------2--------2-----2--|
G|-----2-----2--------2--------------2--------2-----|
D|--0--------------------------2--------------------|
A|--------------------------0-----------------------|
E|--------------------------------------------------|

Verse 2:

E|-----------3-(3)----------------2-----------------|  x1
B|-----------------5-----5-----------3--------2-----|
G|--------4-----------4--------2-----------------2--|
D|--------------------------0--------------2--------|
A|-----2--------------------------------0-----------|
E|--0-----------------------------------------------|

E|--3----|
B|--5----|
G|--4----|
D|--2----|
A|--2----|
E|--0----|

Chorus 2:

E|--3-- --2-- --0--| until fading out
B|--5-- --3-- --2--|
G|--4-- --2-- --2--|
D|--2-- --0-- --2--|
A|--2-- ----- --0--|
E|--0-- ----- -----|
Comments