Dandy Warhols - Horse Pills Chords & Tabs

 

Horse Pills Chords & Tabs

Dandy Warhols Chords & Tabs

Version: 2 Type: Tab 0 ratings
1 star 2 stars 3 stars 4 stars 5 stars
comments

Horse Pills Tab

   
Horse Pills

D A N D Y   W A R H O L S

Tabbed By Aaron Bridgeman (rokken@sicness.net)


http://bogans.arecool.net

KEY:
~ = sustain

INTRO/CHORUS:
e|----------------|
B|----------------|
G|----------------|
D|-2-2--4---7-7---|
A|-2-2--4---7-7---|
E|-0-0--2---5-5---|

VERSE:
e|--------3-----0------------------|
B|-5---5-----5--3- bend up slowly -|
G|---------------------------------|
D|---------------------------------|
A|---------------------------------|
E|---------------------------------|

VERSE FILL:
e|-3--0-|
B|-3--0-|
G|-4--1-|
D|-5--2-|
A|-5--2-|
E|-3--0-|
Listen to see where used
[ Tab from: http://www.guitartabs.cc/tabs/d/dandy_warhols/horse_pills_tab_ver_2.html ]
BRIDGE:
e|-----------------------------------------------------------------|
B|-----------------------------------------------------------------|
G|-----------------------------------------------------------------|
D|-----------------------------------------------------------------|
A|-4-4-4-4-4-4-4-4-4-4-4-4-4-4-4-4-7-7-7-7-7-7-7-7-9-9-9-9-9-9-9-9-|
E|-2-2-2-2-2-2-2-2-2-2-2-2-2-2-2-2-5-5-5-5-5-5-5-5-7-7-7-7-7-7-7-7-|

SOLO:
e|-----------------------------------------|
B|-----------------------------------------|
G|-15- use an effect and bend up and down -|
D|----- can tremolo pick for extra impact -|
A|-----------------------------------------|
E|-----------------------------------------|

OUTRO:
e|-9~~--17--------------|
B|----------20--19--17--|
G|----------------------|
D|----------------------|
A|----------------------|
E|----------------------|

Keep rockin' on the horse size pills!
Comments