Dandy Warhols - Godless Chords & Tabs

 

Godless Chords & Tabs

Dandy Warhols Chords & Tabs

Version: 1 Type: Tab 0 ratings
1 star 2 stars 3 stars 4 stars 5 stars
comments

Godless Tab

Godless

D A N D Y   W A R H O L S

Tabbed By Aaron Bridgeman (rokken@sicness.net)


http://bogans.arecool.net

KEY:
x = play previous chord (no fret muting in this song)
~ = sustain / vibrato a bit

MAIN FIGURE:
e|-2xx--x-x-x-x-3--x--x-x-x-|
B|-3xx--x-x-x-x-3--x--x-x-x-|
G|-1xx--x-x-x-x-0--x--x-x-x-| (x2)
D|-0xx--x-x-x-x-0--x--x-x-x-|
A|--------------2--x--x-x-x-|
E|--------------3--x--x-x-x-|

e|-2--x--x-x-x-0--x--x-x-x-0--x--x-x-x-2-x-x-x-x-x-x-x-x-x-x-x-x-x-x-x-x-|
B|-3--x--x-x-x-1--x--x-x-x-1--x--x-x-x-3-x-x-x-x-x-x-x-x-x-x-x-x-x-x-x-x-|
G|-1--x--x-x-x-2--x--x-x-x-0--x--x-x-x-2-x-x-x-x-x-x-x-x-x-x-x-x-x-x-x-x-|
D|-0--x--x-x-x-2--x--x-x-x-2--x--x-x-x-0-x-x-x-x-x-x-x-x-x-x-x-x-x-x-x-x-|
A|-------------0--x--x-x-x-3--x--x-x-x-----------------------------------|
E|-----------------------------------------------------------------------|

Chuck in some Dsus2's and Dsus4's with that final D chord.
Variations played throughout song.
[ Tab from: http://www.guitartabs.cc/tabs/d/dandy_warhols/godless_tab.html ]
LEAD: (Horns arranged for guitar)
e|------------------------------------------------------------------------------------|
B|------------------------------------------------------------------------------------|
G|-7-5-7-9--5-----5--7~~--7-5-7-9--5-----5--9-7~~--7-5-7--9--5-----5--9--5----5-9-7~~-|
D|-------------7----------------------7-------------------------7-----------7---------|
A|------------------------------------------------------------------------------------|
E|------------------------------------------------------------------------------------|

BREAKDOWN:
e|-1-----x-x--3-----x-x---------1-----x-x--0-----x-x--2-----x-x--x-x-|
B|-3-----x-x--3-----x-x---------3-----x-x--1-----x-x--3-----x-x--x-x-|
G|-2-----x-x--0-----x-x---------2-----x-x--0-----x-x--2-----x-x--x-x-|
D|-0-----x-x--0-----x-x-- (x2) -0-----x-x--2-----x-x--0-----x-x--x-x-|
A|------------2-----x-x--------------------3-----x-x-----------------|
E|------------3-----x-x----------------------------------------------|
Play very lightly

There ya go!
Comments