Dandy Warhols - Cool Scene Chords & Tabs

 

Cool Scene Chords & Tabs

Dandy Warhols Chords & Tabs

Version: 1 Type: Bass Tab 0 ratings
1 star 2 stars 3 stars 4 stars 5 stars
comments

Cool Scene Bass Tab

   
cool scene - bass line

by The Dandy Warhols
from album 'Thirteen tales from urban bohemia'

transcribed by Christian Reindel (creindel@gmx.de)
any questions or corrections- e-mail me

Normal tuning
[ Tab from: http://www.guitartabs.cc/tabs/d/dandy_warhols/cool_scene_btab.html ]
Verse - 2 1/2 times
G:|----------------------------------------------------------|
D:|----------------------------------------------------------|
A:|-55--5-55--5-55--5-55--5-55--5----------------------------|
E:|-------------------------------55--5-55--5-55--5-55--5-55-|
   
Chorus
              all  the  talking  fools                     what it
G:|---------------------------------------------------------------|
D:|-5-5-5-5-5-5-5-5-5-5-5-5-5-5-5---------------------------------|
A:|-------------------------------9-9-9-9-9-9-9-9-9-9-9-9-9-9-9-9-|
E:|---------------------------------------------------------------|
    means                 last I see        
G:|---------------------------------------------------------------|
D:|-5-5-5-5-5-5-5-5-5-5-5-5-5-5-5-7-7-7-7-7-7-7-7-7-7-7-7-7-7-7-7-|
A:|---------------------------------------------------------------|
E:|---------------------------------------------------------------|
 
   baby it's all me
G:|---------------------------------------------|
D:|---------------------------------------------|
A:|---------------------------------------------|
E:|---------------------------------------------|
  
Outro - play until the end
G:|-------------------------------|
D:|-------------------------------|
A:|5-55--5-55--5-55--5-55--5-55---|
E:|-------------------------------| 

Thats' it.
Comments