Dandy Warhols - Bohemian Like You Chords & Tabs

 

Bohemian Like You Chords & Tabs

Dandy Warhols Chords & Tabs

Version: 5 Type: Tab 0 ratings
1 star 2 stars 3 stars 4 stars 5 stars
comments

Bohemian Like You Tab

E---|-----------------|--2--2--3--3--2--|-----------------|--4--4--5----
B---|--4--4--5--5--4--|--3--3--3--3--3--|--3--3--4--4--3--|--5--5--5----
G---|--4--4--4--4--4--|--2--2--2--2--2--|--3--3--3--3--3--|--4--4--4----
D---|--4--4--4--4--4--|--0--0--0--0--0--|--3--3--3--3--3--|-------------
A---|-----------------|-----------------|-----------------|-------------
E---|-----------------|-----------------|-----------------|-------------
                                                                        
[ Tab from: http://www.guitartabs.cc/tabs/d/dandy_warhols/bohemian_like_you_tab_ver_5.html ]
                                                                        
E---5--4--||--------------------------|--------------------------|------
B---5--5--||--------------------------|--------------------------|------
G---4--4--||--------------------------|--7--7--7--7--7--7--7--7--|------
D---------||--9--9--9--9--9--9--9--9--|--7--7--7--7--7--7--7--7--|------
A---------||--9--9--9--9--9--9--9--9--|--5--5--5--5--5--5--5--5--|------
E---------||--7--7--7--7--7--7--7--7--|--------------------------|------
                                                                        

                                                                        
E---------------------------|--------------------------|----------------
B---------------------------|--------------------------|----------------
G---------------------------|--9--9--9--9--9--9--9--9--|----------------
D---7--7--7--7--7--7--7--7--|--9--9--9--9--9--9--9--9--|----------------
A---7--7--7--7--7--7--7--7--|--7--7--7--7--7--7--7--7--|----------------
E---5--5--5--5--5--5--5--5--|--------------------------|----------------
                                                                        
these are the two main riffs in bohemian like you by the beautiful dandy warhols. 
every time i try to make changes to this file my computer crashes so i have to leave 
it like this, but the riffs are seporated by the double line. 

for the first one you just hammer on your little finger. i think this is all right. 
any changes feedback etc my address is hungwell84@hotmail.com
Comments