Dandy Warhols - Bohemian Like You Chords & Tabs

 

Bohemian Like You Chords & Tabs

Dandy Warhols Chords & Tabs

Version: 3 Type: Bass Tab 0 ratings
1 star 2 stars 3 stars 4 stars 5 stars
comments

Bohemian Like You Bass Tab

----------------------------------------------------------------------------
Bohemian Like You - Dandy Warhols
-----------------------------------------------------------------------------

Tabbed By : Amit 
e-mail: amitchachlani@hotmail.com 

Tuning:Standard

Riff1
G|--------------------0---0-------------------------------------------------|
D|--------2--2--0-0-0---0---0-------0---0-----------------------------------|
A|--2-2-2---2-2---------------0-0-0---0---0-------2---2---------------------|
E|------------------------------------------0-0-0---0---0-------------------|

G|--------------------0---0-------------------------------------------------|
D|--------2--2--0-0-0---0---0-------0---0-----------------------------------|
A|--2-2-2---2-2---------------0-0-0---0---0-------2---2---------------------|
E|------------------------------------------0-0-0---0---0-------------------|
[ Tab from: http://www.guitartabs.cc/tabs/d/dandy_warhols/bohemian_like_you_btab_ver_3.html ]
Riff2
G|--------------------------------------------------------------------------|
D|--------------------------------------------------------------------------|
A|--------------------------------------------------------------------------|
E|-7-7-7-7-7-0-0-0--7-7-7-7-7-0-0-0--7-7-7-7-7-0-0-0--7-7-7-7-7-0-0-0-------|

Riff3
G|--------------------------------------------------------------------------|
D|--------------------------------------------------------------------------|
A|-----------------5-5-5-5-5-5-5-5-0-0-0-0-0-0-0-0--------------------------|
E|-7-7-7-7-7-7-7-7---------------------------------0-0-0-0-0-0-0-0----------|

Riff4
G|--------------------------------------------------------------------------|
D|--------------------------------------------------------------------------|
A|-2-2-2-2-2-2-2-2-5-5-5-5-5-5-5-5-0-0-0-0-0-0-0-0--------------------------|
E|-------------------------------------------------0-0-0-0-0-0-0-0----------|

End
G|--------------------------------------------------------------------------|
D|--------------------------------------------------------------------------|
A|--------------------------------------------------------------------------|
E|-0------------------------------------------------------------------------|

Order:
Riff1 x 2
Riff2 x 1
Riff1 x 2
Riff2 x 1
Riff3 x 2
Riff2 x 1
Riff4 x 3
Riff1 x 2
Riff2 x 1
Riff4 x 2
Riff2 x 1
Riff4 x 2
Riff3 x 2
Riff2 x 1
Riff4 x 3
Riff1 x 2
Riff2 x 1
Riff4 x 2
Riff2 x 1
Riff4 x 2
Riff1 x 2
End
Comments