Dancing Pants - Robot Song Chords & Tabs

 

Robot Song Chords & Tabs

Dancing Pants Chords & Tabs

Version: 2 Type: Tab 0 ratings
1 star 2 stars 3 stars 4 stars 5 stars
comments

Robot Song Tab

   
ROBOT SONG

Transcribed by Wes Sharp
Words and Music by Wes Sharp
Arranged by The Dancing I (E A D G B E) - 'Untitled'

Intro
  Gtr I
   Q   Q   Q   Q     Q   Q   Q   Q     Q   Q   Q   Q     Q   Q   Q   Q
|-----------------|-----------------|-----------------|-----------------|
|---------12------|---------12------|---------12------|---------12------|
|---------13------|---------13------|---------13------|---------13------|
|-----14------14--|-----14------14--|-----14------14--|-----14------14--|
|-----------------|-----------------|-----------------|-----------------|
|-12--------------|-12--------------|-12--------------|-12--------------|


   Verse
     Q   Q   Q   Q     Q   Q   Q   Q     Q   Q   Q   Q     Q   Q   Q   Q
||------------------|-----------------|-----------------|-------------------||
||o---------12------|---------12------|---------12------|---------12-------o||
||----------13------|---------13------|---------13------|---------13--------||
||------14------14--|-----14------14--|-----14------14--|-----14------14----||
||o-----------------|-----------------|-----------------|------------------o||
||--12--------------|-12--------------|-12--------------|-12----------------||


  H    q  Q    H    q  Q    H    q  Q    H    q  Q
|-0----0--0--|-0----0--0--|-3----3--3--|-3----3--3----|
|-2----2--2--|-2----2--2--|-0----0--0--|-0----0--0----|
|-2----2--2--|-2----2--2--|-0----0--0--|-0----0--0----|
|-2----2--2--|-2----2--2--|-0----0--0--|-0----0--0----|
|-0----0--0--|-0----0--0--|------------|--------------|
|------------|------------|-3----3--3--|-3----3--3----|


     Q   Q   Q   Q     Q   Q   Q   Q     Q   Q   Q   Q     Q   Q   Q   Q    3x
||------------------|-----------------|-----------------|-------------------||
||o---------12------|---------12------|---------12------|---------12-------o||
||----------13------|---------13------|---------13------|---------13--------||
||------14------14--|-----14------14--|-----14------14--|-----14------14----||
||o-----------------|-----------------|-----------------|------------------o||
||--12--------------|-12--------------|-12--------------|-12----------------||


  H    q  Q    H    q  Q    H    q  Q    H    q  Q
|-0----0--0--|-0----0--0--|-3----3--3--|-3----3--3--|
|-2----2--2--|-2----2--2--|-0----0--0--|-0----0--0--|
|-2----2--2--|-2----2--2--|-0----0--0--|-0----0--0--|
|-2----2--2--|-2----2--2--|-0----0--0--|-0----0--0--|
|-0----0--0--|-0----0--0--|------------|------------|
|------------|------------|-3----3--3--|-3----3--3--|


   Q   Q   Q   Q     Q   Q   Q   Q
|-----------------|-----------------|
|---------12------|---------12------|
|---------13------|---------13------|
|-----14------14--|-----14------14--|
|-----------------|-----------------|
|-12--------------|-12--------------|


   Q   Q   Q   Q     E  E  E  E  E  E  E  E
|-----------------|-------------------------|
|---------12------|-12-12-12-12-12-12-12-12-|
|---------13------|-13-13-13-13-13-13-13-13-|
|-----14------14--|-14-14-14-14-14-14-14-14-|
|-----------------|-------------------------|
|-12--------------|-12-12-12-12-12-12-12-12-|

[ Tab from: http://www.guitartabs.cc/tabs/d/dancing_pants/robot_song_tab_ver_2.html ]
    E
    H    q  Q    H    q  Q    H    q  Q    H    q  Q
||--0----0--0--|-0----0--0--|-0----0--0--|-0----0--0-||
||o-0----0--0--|-0----0--0--|-0----0--0--|-0----0--0o||
||--1----1--1--|-1----1--1--|-1----1--1--|-1----1--1-||
||--2----2--2--|-2----2--2--|-2----2--2--|-2----2--2-||
||o-2----2--2--|-2----2--2--|-2----2--2--|-2----2--2o||
||--0----0--0--|-0----0--0--|-0----0--0--|-0----0--0-||


  H    q  Q    H    q  Q    H    q  Q    H    q  Q
|-0----0--0--|-0----0--0--|-3----3--3--|-3----3--3--|
|-2----2--2--|-2----2--2--|-0----0--0--|-0----0--0--|
|-2----2--2--|-2----2--2--|-0----0--0--|-0----0--0--|
|-2----2--2--|-2----2--2--|-0----0--0--|-0----0--0--|
|-0----0--0--|-0----0--0--|------------|------------|
|------------|------------|-3----3--3--|-3----3--3--|


   Q   Q   Q   Q     Q   Q   Q   Q     Q   Q   Q   Q     Q   Q   Q   Q
|-----------------|-----------------|-----------------|-----------------|
|---------12------|---------12------|---------12------|---------12------|
|---------13------|---------13------|---------13------|---------13------|
|-----14------14--|-----14------14--|-----14------14--|-----14------14--|
|-----------------|-----------------|-----------------|-----------------|
|-12--------------|-12--------------|-12--------------|-12--------------|


    H    q  Q    H    q  Q    H    q  Q    H    q Q
||--0----0--0--|-0----0--0--|-0----0--0--|-0----0-0--||
||o-0----0--0--|-0----0--0--|-0----0--0--|-0----0-0-o||
||--1----1--1--|-1----1--1--|-1----1--1--|-1----1-1--||
||--2----2--2--|-2----2--2--|-2----2--2--|-2----2-2--||
||o-2----2--2--|-2----2--2--|-2----2--2--|-2----2-2-o||
||--0----0--0--|-0----0--0--|-0----0--0--|-0----0-0--||


  H    q  Q    H    q  Q    H    q  Q    H    q  Q
|-0----0--0--|-0----0--0--|-3----3--3--|-3----3--3--|
|-2----2--2--|-2----2--2--|-0----0--0--|-0----0--0--|
|-2----2--2--|-2----2--2--|-0----0--0--|-0----0--0--|
|-2----2--2--|-2----2--2--|-0----0--0--|-0----0--0--|
|-0----0--0--|-0----0--0--|------------|------------|
|------------|------------|-3----3--3--|-3----3--3--|


 

Duration Legend --------------- W - whole; H - half; Q - quarter; E - 8th; S - 16th; T - 32nd; X - 64th; a - acciaccatura + - note tied to previous; . - note dotted; .. - note double dotted Uncapitalized letters represent notes that are staccato (1/2 duration) Irregular groupings are notated above the duration line Duration letters will always appear directly above the note/fret number it represents the duration for. Duration letters with no fret number below them represent rests. Multi- bar rests are notated in the form Wxn, where n is the number of bars to rest for. Low melody durations appear below the staff Tablature Legend ---------------- h - hammer-on p - pull-off b - bend pb - pre-bend r - bend release (if no number after the r, then release immediately) /\ - slide into or out of (from/to "nowhere") s - legato slide S - shift slide <n> - natural harmonic [n] - artificial harmonic n(n) - tapped harmonic ~ - vibrato tr - trill T - tap TP - trem. picking PM - palm muting \n/ - tremolo bar dip; n = amount to dip \n - tremolo bar down n/ - tremolo bar up /n\ - tremolo bar inverted dip = - hold bend; also acts as connecting device for hammers/pulls <> - volume swell (louder/softer) x - on rhythm slash represents muted slash o - on rhythm slash represents single note slash Misc Legend ----------- | - bar || - double bar ||o - repeat start o|| - repeat end *| - double bar (ending) : - bar (freetime) $ - Segno & - Coda

Comments