Dancing Pants - Nightmares Chords & Tabs

 

Nightmares Chords & Tabs

Dancing Pants Chords & Tabs

Version: 2 Type: Tab 0 ratings
1 star 2 stars 3 stars 4 stars 5 stars
comments

Nightmares Tab

   
NIGHTMARES


Transcribed by Wes Sharp
Words and Music by Wes Sharp
Arranged by The Dancing I (E A D G B E) - 'Untitled'

Slowly Q=60
 4/4
  Gtr I
  Wx20
|---------|
|---------|
|---------|
|---------|
|---------|
|---------|


 Chorus
  Q  Q  E E E E   W          Q  Q  E E E E   W
|---------------|----------|---------------|------|
|---------------|----------|---------------|------|
|-4--4--4-4-4-4-|----------|-4--4--4-4-4-4-|-7----|
|-4--4--4-4-4-4-|-3--------|-4--4--4-4-4-4-|-7----|
|-2--2--2-2-2-2-|-3--------|-2--2--2-2-2-2-|-5----|
|---------------|-1--------|---------------|------|


  Wx12
|---------|
|---------|
|---------|
|---------|
|---------|
|---------|


 Chorus
  Q  Q  E E E E   E E E E E E E E   Q  Q  E E E E   E E E E E E E E
|---------------|-----------------|---------------|-----------------|
|---------------|-----------------|---------------|-----------------|
|-4--4--4-4-4-4-|-----------------|-4--4--4-4-4-4-|-7-7-7-7-7-7-7-7-|
|-4--4--4-4-4-4-|-3-3-3-3-3-3-3-3-|-4--4--4-4-4-4-|-7-7-7-7-7-7-7-7-|
|-2--2--2-2-2-2-|-3-3-3-3-3-3-3-3-|-2--2--2-2-2-2-|-5-5-5-5-5-5-5-5-|
|---------------|-1-1-1-1-1-1-1-1-|---------------|-----------------|


  Wx2          S  S  S  S  S  S  S E  S  S  S  S  S  S S
|------------|-------------------------------------------|
|------------|---12-12-12-12-14-15---12-12-12-12-14-15---|
|------------|-------------------------------------------|
|------------|-------------------------------------------|
|------------|-------------------------------------------|
|------------|-------------------------------------------|


  S  S  S  S  S  S  S E  S  S  S  S  S  S S
|--------------------------------------------|
|---12-12-12-12-14-15---12-12-12-12-14-15----|
|--------------------------------------------|
|--------------------------------------------|
|--------------------------------------------|
|--------------------------------------------|


   Q      Q   Q   Q     Q      Q   Q   S  S  S  S
|--------------------|----------------------------|
|-15b17r=12--15------|-15b17r=12--15--12-15-12----|
|----------------14--|-------------------------14-|
|--------------------|----------------------------|
|--------------------|----------------------------|
|--------------------|----------------------------|


   S  S  S  S  S  S  S  S  S  S  S  S  S  S  S  S    S  S  S  S  S  S  S  S  S  S  S  S  Q
|-------------------------------------------------|-------------------------------------------|
|-12-15-12----12-15-12----12-15-12----12-15-12----|-12-15-12----12-15-12----12-15-12----12----|
|----------14----------14----------14----------14-|----------14----------14----------14-------|
|-------------------------------------------------|-------------------------------------------|
|-------------------------------------------------|-------------------------------------------|
|-------------------------------------------------|-------------------------------------------|


   Q   Q   Q   Q    Q   Q  Q  S  S S  S    Q   Q   Q   Q    Q   Q  H
|-----------------|----------------8-10-|-----------------|-------------|
|-12--15--10--15--|-9--15--8--8-10------|-12--15--10--15--|-9--15--8----|
|-----------------|---------------------|-----------------|-------------|
|-----------------|---------------------|-----------------|-------------|
|-----------------|---------------------|-----------------|-------------|
|-----------------|---------------------|-----------------|-------------|

[ Tab from: http://www.guitartabs.cc/tabs/d/dancing_pants/nightmares_tab_ver_2.html ]
 Chorus
  Q  Q  E E E E   E E E E E E E E   Q  Q  E E E E   E E E E E E E E
|---------------|-----------------|---------------|-----------------|
|---------------|-----------------|---------------|-----------------|
|-4--4--4-4-4-4-|-----------------|-4--4--4-4-4-4-|-7-7-7-7-7-7-7-7-|
|-4--4--4-4-4-4-|-3-3-3-3-3-3-3-3-|-4--4--4-4-4-4-|-7-7-7-7-7-7-7-7-|
|-2--2--2-2-2-2-|-3-3-3-3-3-3-3-3-|-2--2--2-2-2-2-|-5-5-5-5-5-5-5-5-|
|---------------|-1-1-1-1-1-1-1-1-|---------------|-----------------|


 Guitar Solo
  E  S  S  S  S  S Q   E  e S
|-----------------------------|
|---12-15-12-10-10-9--10-12---|
|-----------------------------|
|-----------------------------|
|-----------------------------|
|-----------------------------|


   S  S  S  S  S S T  T  T  T  T  T T S  T  T  T  T  T S E
|----------------------------------------------------------|
|-12-15-12-10-10-9---12-15-12-10-10-9---12-15-12-10-10-9---|
|----------------------------------------------------------|
|----------------------------------------------------------|
|----------------------------------------------------------|
|----------------------------------------------------------|


  E  S  S  S  S  S  S  S  S S  S  S  S  S  S    S  S S  S  S  E  S  E  S Q  S
|--------------------------------------------|--------------------------------|
|--------------------------------------------|--------------------------------|
|---------------14---------------------14----|---------14-------------11-9----|
|---12-14-12-14----14-12-14---14-12-14----14-|-12-14------14-12-10-12---------|
|--------------------------------------------|--------------------------------|
|--------------------------------------------|--------------------------------|


    S S S S S S S S S S S S S S S S   S S S S S S S S S S S S S S S S
||----------------------------------|----------------------------------||
||o---------------------------------|---------------------------------o||
||--4-4-4-4-4-4-4-4-----------------|-----------------2-2-2-2-2-2-2-2--||
||--4-4-4-4-4-4-4-4-2-2-2-2-2-2-2-2-|-5-5-5-5-5-5-5-5-2-2-2-2-2-2-2-2--||
||o-2-2-2-2-2-2-2-2-2-2-2-2-2-2-2-2-|-5-5-5-5-5-5-5-5-0-0-0-0-0-0-0-0-o||
||------------------0-0-0-0-0-0-0-0-|-3-3-3-3-3-3-3-3------------------||


 

Duration Legend --------------- W - whole; H - half; Q - quarter; E - 8th; S - 16th; T - 32nd; X - 64th; a - acciaccatura + - note tied to previous; . - note dotted; .. - note double dotted Uncapitalized letters represent notes that are staccato (1/2 duration) Irregular groupings are notated above the duration line Duration letters will always appear directly above the note/fret number it represents the duration for. Duration letters with no fret number below them represent rests. Multi- bar rests are notated in the form Wxn, where n is the number of bars to rest for. Low melody durations appear below the staff Tablature Legend ---------------- h - hammer-on p - pull-off b - bend pb - pre-bend r - bend release (if no number after the r, then release immediately) /\ - slide into or out of (from/to "nowhere") s - legato slide S - shift slide <n> - natural harmonic [n] - artificial harmonic n(n) - tapped harmonic ~ - vibrato tr - trill T - tap TP - trem. picking PM - palm muting \n/ - tremolo bar dip; n = amount to dip \n - tremolo bar down n/ - tremolo bar up /n\ - tremolo bar inverted dip = - hold bend; also acts as connecting device for hammers/pulls <> - volume swell (louder/softer) x - on rhythm slash represents muted slash o - on rhythm slash represents single note slash Misc Legend ----------- | - bar || - double bar ||o - repeat start o|| - repeat end *| - double bar (ending) : - bar (freetime) $ - Segno & - Coda

Comments