Dance Hall Crashers - Go Chords & Tabs

 

Go Chords & Tabs

Dance Hall Crashers Chords & Tabs

Version: 1 Type: Bass Tab 0 ratings
1 star 2 stars 3 stars 4 stars 5 stars
comments

Go Bass Tab

                   -=-=-=-=-=- GO -=-=-=-=-=-
         by Dance Hall Crashers from the album "Lockjaw"
            Tabbed by Dave Miller (dwm3@po.cwru.edu)

-=-=-=-=-=-=-=-=-=-=-=-=-=-=-=-=-=-=-=-=-=-=-=-=-=-=-=-=-=-=-=-=-=-=-=-=-=-=-=-
   One of my favorite DHC tunes.  It has a great kick to it
   that makes it fun to play.  Really not that difficult...

            http://www.basstabarchive.com
   
   If you have any submissions for the archive, feel free to mail them to
   me at submit@basstabarchive.com.

   Enjoy!                                                                                   
-=-=-=-=-=-=-=-=-=-=-=-=-=-=-=-=-=-=-=-=-=-=-=-=-=-=-=-=-=-=-=-=-=-=-=-=-=-=-=-

  Intro

||-----------------------------------------------------------
||*----------------------------------------------------------
||*--------7-------------7-----------------------------------
||---7--5-----7----7--5-----7--------------------------------                                                                                

[ Tab from: http://www.guitartabs.cc/tabs/d/dance_hall_crashers/go_btab.html ]
  Chorus
                                                                                
||-----------------------------------------------------------
||*----------------6-----------------------------------------
||*----6-----4-5-7---7---------------------------------------
||---7---7-5-----------7-------------------------------------
               
     Wanna go with you but I think I'll stay...                                                                 
  

  Verse
                                                                                
||-----------------------------------------------------------
||*----------------------------------------------------------
||*----------------7--7-7-7-7-7-7----------------------------
||---9-9-9--5-5-5--------------------------------------------

     wandered off without you....
                                                                           
  
  Interlude
                                                                                
||-----------------------------------------------------------
||*----------------------------------------------------------
||*-----6--9--6-----------4----------------------------------
||---7-----------0--4--5-------------------------------------

     Your destiny can be what you make it...

Comments