Dance Hall Crashers - Dhc Chords & Tabs

 

Dhc Chords & Tabs

Dance Hall Crashers Chords & Tabs

Version: 2 Type: Bass Tab 0 ratings
1 star 2 stars 3 stars 4 stars 5 stars
comments

Dhc Bass Tab

Song:DHC
Band:Dance Hall Crashers
Album:The Old Record
tabbed by:Barak

  Intro 
G:--------------------------------------------
D:--------------------232---------------------
A:---2-----2-----23--3-------2----2----23-3-3-
E:-33-3--33-3--33----------33-3-33-3-3--------

  Verse 
G:-------------------------
D:--------------------232--*
A:---2-----2-----23--3-----*
E:-33-3--33-3--33----------
[ Tab from: http://www.guitartabs.cc/tabs/d/dance_hall_crashers/dhc_btab_ver_2.html ]
                                                                        
Chorus                                    ...Dance Hall, Dance Hall
G:-------------------------------------------------Crashing Tonight!"
D:---4-7-----4-7----2-3-2---2-3-2---4-7-----4-7----
A:-5-----5-5-----5-3------3-------5-----5-5-----5--
E:-------------------------------------------------

That's it. The verse just plays twice before each verse and four times 
for each verse.
Comments