Dance Hall Crashers - Buried Alive Chords & Tabs

 

Buried Alive Chords & Tabs

Dance Hall Crashers Chords & Tabs

Version: 1 Type: Bass Tab 0 ratings
1 star 2 stars 3 stars 4 stars 5 stars
comments

Buried Alive Bass Tab

              -=-=-=-=-=- Buried Alive -=-=-=-=-=-
         by Dance Hall Crashers from the album "Lockjaw"
            Tabbed by Dave Miller (dwm3@po.cwru.edu)

-=-=-=-=-=-=-=-=-=-=-=-=-=-=-=-=-=-=-=-=-=-=-=-=-=-=-=-=-=-=-=-=-=-=-=-=-=-=-=-
   Cool DHC song (aren't they all?).  Really simple song to
   play, but sounds great and wonderful for some skankin'
   action.  

              http://www.basstabarchive.com/
   
   If you have any submissions for the archive, feel free to mail them to
   me at submit@basstabarchive.com.

   Enjoy!                                                                                   
-=-=-=-=-=-=-=-=-=-=-=-=-=-=-=-=-=-=-=-=-=-=-=-=-=-=-=-=-=-=-=-=-=-=-=-=-=-=-=-

[ Tab from: http://www.guitartabs.cc/tabs/d/dance_hall_crashers/buried_alive_btab.html ]
  Verse
                                                          
||--------------------------------------------------------
||*-------------------------------------------------------
||*-------5-5-------5-5-------5-5-------7-7---------------
||---5-5-------7-7-------5-5-------7-7--------------------
                                                                               
     On a normal day...       


  Prechorus
                                                          
||--------------------------------------------------------
||*-------------------------------------------------------
||*---9-9--8--7--5-5--5-5---------------------------------
||--------------------------------------------------------

      If only it would get better...


  Chorus
                                                          
||--------------------------------------------------------
||*-------------------------------------------------------
||*-------5-5--7-7----------------------------------------
||---2-2------------5-5-----------------------------------
 
     I might go throw it all away...


Comments