Dan Seals - One Friend Chords & Tabs

 

One Friend Chords & Tabs

Dan Seals Chords & Tabs

Version: 1 Type: Tab 0 ratings
1 star 2 stars 3 stars 4 stars 5 stars
comments

One Friend Tab

   
One Friend

Dan Seals
 
|---------------------------------------------------|
|   '&'                                             |
|    #                                              |
|    #     Tabbed by Don Michael Acelar De Leon     |
|   _#_    15 years old                             |
|  ( # )                                            |
|  / O \   donmichael001@yahoo.com                  |
| ( === )                                           |
|  `---'                                            |
|---------------------------------------------------|

Standard Tuning, |EADGBE|

Intro

   D 	     Bm   A     G   Bm     A    D       
E|-----2------3---2---|---------------|---------0-------|
B|-3-----3------------|-3---3------2--|-----3-------3---|
G|-2-------2----0---2-|-------4----2--|---2---2---2---2-|
D|-0-0----------------|---0-----4-----|-0---------------|
A|------------2---0---|-----2------0--|-----------------|
E|--------------------|-3-------------|-----------------|

Verse

"I always thought you were the best..."
   D         Bm   A
E|-----2------3---2---|
B|-3-----3------------|
G|-2-2-----2----0---2-|
D|-0------------------|
A|------------2---0---|
E|--------------------|

"I guess I always will.."
   G    A       D 
E|--------------2-|
B|-3----2-------3-|
G|--------2----2--|
D|---0-------0----|
A|------0---------|
E|-3--------------|

"I always felt that we were blessed.."
   D         Bm   A 
E|-----2------3---2---|
B|-3-----3------------|
G|-2-2-----2----0---2-|
D|-0------------------|
A|------------2---0---|
E|--------------------|

"And I feel that way still.."
   Em      Asus A  
E|----------------|
B|-----0----3---2-|
G|-0-----0--2---2-|
D|---2--------2---|
A|----------0-----|
E|-0--------------|

"Sometimes we took the hard road..."
  Bm      F#m   
E|-----------------|
B|-----3-------2---|
G|-----4-------2---|
D|---4---------4---|
A|-2-----2---4-----|
E|---------2-------|

"But we always saw it through.."
     G        Em
E|-----------------|
B|-------3---------|
G|---0---0-0--2--0-|
D|-----0-----------|
A|-----------------|
E|-2-3--------0----|

"If I had only one friend left.."
   D          Bm  A 
E|-----2------3---2---|
B|-3-----3------------|
G|-2-2-----2----0---2-|
D|-0------------------|
A|------------2---0---|
E|--------------------|
[ Tab from: http://www.guitartabs.cc/tabs/d/dan_seals/one_friend_tab.html ]
"I'd want it to be you..."
   G    A      D       
E|-----------------------|
B|-3----2--------3-------|
G|--------2----2---2-0---|
D|---0-------0----------4|
A|------0----------------|
E|-3---------------------|

"Sometimes the world was on our side..."--same as verse riff

Before chorus

"I'd want it to be you.."
   G    A    D             A/C#
E|---------------2-------2---|
B|-3----2--------3-------3-2-|
G|--------2----2---2---2---2-|
D|---0-------0-------0---0-2-|
A|------0------------------4-|
E|-3-------------------------|

Chorus

"Someone who understands me.."
  Bm      F#m
E|-----------------|
B|-----3-------2---|
G|-----4-------2---|
D|---4---------4---|
A|-2-----2---4-----|
E|---------2-------|

"And knows me inside out.."
   G    A        D
E|---------------2---|
B|-3----2--------3-2-|
G|--------2----2---2-|
D|---0-------0-----2-|
A|------0----------4-|
E|-3-----------------|

"Someone to tell it to.."
     G       Em
E|----------------|
B|-------3--------|
G|---0---0-0----0-|
D|-----0-------2--|
A|------------2---|
E|-2-3-------0----|

Interlude

Lead-in (Electric, Slight Distortion-Delay)

*Note: Apply generous vibrato to every note*

E|-----10~-9~-7~~--------------------------|
B|-/10~----------10~~--8~~--8~~--10-7~~~/--|
G|-----------------------------------------|
D|-----------------------------------------|
A|-----------------------------------------|
E|-----------------------------------------|

E|---------10~-9~-7~~------12~-14~-14/15~-14~-12~~-----12~---17~-15~-14~~~-|
B|-/7~-10~-----------10~~--------------------------15~---------------------|
G|--------------------------------------------------------14~--------------|
D|-------------------------------------------------------------------------|
A|-------------------------------------------------------------------------|
E|-------------------------------------------------------------------------|

Outro

"I'd want it to be...you.."
   D         Em    D/A 
E|-----2---------------|
B|-3-----3----0--------|
G|-2-------2--0------2-|
D|-0-0--------2-2---0--|
A|-----------------0---|
E|---------------------|

Manor, TX. September 1, 2004, 5:56 PM

My warmest thanks to:

IV-SIR ISAAC NEWTON S Y 2004-2005

AFS INTERCULTURAL PROGRAMS PHILIPPINES

REPUBLIC OF THE PHILIPPINES
Division of City Schools of Makati
Mayor Jejomar C Binay
Ms Elena R Ruiz

MAKATI SCIENCE HIGH SCHOOL 
Eric Ebia, Jr 
Hanz Billy John Magat
Francis Vincent Co
Jodessa Piloton
Reinzy Colle
John Santos
Janie Maye Mamangon
Camille Vanessa Vidad
Maria Christina Santiago Reyes

Dedicated to...

IV SIR ISAAC NEWTON 2004-2005

J.A.S.B. 2004

CopyrightŪ 2004 by Don Michael Acelar De Leon. All Rights Reserved.
Comments