Damien Rice - Volcano Chords & Tabs

 

Volcano Chords & Tabs

Damien Rice Chords & Tabs

Version: 2 Type: Tab 0 ratings
1 star 2 stars 3 stars 4 stars 5 stars
comments

Volcano Tab

   
---------------------------------------------------------------
                 Damien Rice  "Volcano" - the cello part
-------------------------------------------------------------------
Tabbed by: Mose
Email: cmoser@uiuc.edu

This is the intro cello part at the beginning of the song and after the chorus,
transcribed to guitar...slide as much as possible

Tuning: standard
chords: Am,G,F
[ Tab from: http://www.guitartabs.cc/tabs/d/damien_rice/volcano_tab_ver_2.html ]
e|-------------------------------------------------------------------|
B|--/10-8---3/6-------/10-8---13-10-----/10-8--3/6---3-5-5-----------|
G|---------------------------------------------------------5-4-2-----|
D|-------------------------------------------------------------------|
A|-------------------------------------------------------------------|
E|-------------------------------------------------------------------|
  ----or if you wanna play lower bass notes----
e|--------------------------------------------------------------|
B|--------------------------------------------------------------|
G|--------------------------------------------------------------|
D|--/7-5-------------/7-5--10-7------/7-5-----------------------|
A|--------5/8-------------------------------5/8---5-7-7---------|
E|------------------------------------------------------8-7-5---|
Comments