Damien Rice - Prague Chords & Tabs

 

Prague Chords & Tabs

Damien Rice Chords & Tabs

Version: 2 Type: Tab 0 ratings
1 star 2 stars 3 stars 4 stars 5 stars
comments

Prague Tab

   
Prague-Damien Rice

VERSE part I
E-------------------------------------|
A-7------7-------------------3------3-|
D-----------5-7-9-7-0---------2----2--|
G------------------------------0--0---|   X2
B----0--------------------------------|
e---0---------------------------0-----|

part II
E-----------------------------------------|
A-----------------------------------------|
D-7-----7---------------------------------|
G---------5-7-9-7-0----------7-----7------|   X2
B-----------------------------7------7----|
e0----------------------------5----5-----|
[ Tab from: http://www.guitartabs.cc/tabs/d/damien_rice/prague_tab_ver_2.html ]
part III
E-------------------------------------|
A-------------------------------------|
D-7-----7------7-----------7----------|
G---------5-7-0--0---------7----------|
B--------------------------5----------|
e--0----------------------------------|


CHORUS
 Em     C    Am
E-------3------------------------------|
A-7-----3-----------2------------------|
D5-----2-----2-----1------------------|
G-------------2------------------------|
B-------1-----1------------------------|
e------------------(2)-----------------|

*THE TRANSITION FROM THE VERSE TO CHORUS GOES
  PART I (X2), PART 2 (X1), PART 3 (X1)

I TABBED THIS FROM A LIVE RECORDING ON ESKIMOFRIENDS.COM SO IT IS RIGHT. ANY QUESTIONS 
BE MORE THAN HAPPY TO HELP. MY EMAIL AND YAHOO SCREEN NAME IS RAMS2002@SBCGLOBAL.NET
Comments