Damien Rice - Older Chests Chords & Tabs

 

Older Chests Chords & Tabs

Damien Rice Chords & Tabs

Version: 2 Type: Tab 0 ratings
1 star 2 stars 3 stars 4 stars 5 stars
comments

Older Chests Tab

-------------------------------------------------------------------------------
			     Older Chests - Damien Rice
-------------------------------------------------------------------------------
Tabbed by:jenny
Email:

Tuning:standard eadgbe
VERSE

e|-----------------------------------------------------------------------------|
B|------1--------1------------1-----------0-----------1-------1--------1-------|
G|----0-------0------------0-----0-----0-----0-----0-------0---------0---0-----|
D|--------2----------------------------------------------2---------------------|
A|-3--------------------------------------------3------------------------------|
E|-------------------0-1-------------3---------------------------0-1-----------|


e|-----------------------------------------------------------------------------|
B|-------0---------1------1------------1-------1--------------1----------------|
G|-----0---0-----2------2-----------0--------0--------------2------------------|
D|-------------------2-------------------------------2-h-3---------3-----------|
A|-3-----------0--------------0--2--------3------------------------------------|
E|-----------------------------------------------------------------------------|

[ Tab from: http://www.guitartabs.cc/tabs/d/damien_rice/older_chests_tab_ver_2.html ]
e|--------------------------------------------------------------------------||
B|----------1-------------0--------------------------------------------------|
G|-------2-----2-------0----0------------------------------------------------|
D|--3--3---------------------------------------------------------------------|
A|---------------------------------------------------------------------------|
E|------------------3--------------------------------------------------------|

CHORUS- always time...

e|-----------0---------------------------------------------0-----------------|
B|------1-------1---------------1--------0-----------1--------1--------------|
G|----0---------------0-------0---0----0---0-------0----------------0--------|
D|---------2-------2------------------------------------2--------2-----------|
A|-3--------------------------------------------3----------------------------|
E|-------------------------1---------3-----------------------------------1---|


e|-------------------------------0-------------------------------------------|
B|----1---------0-----------1-------1------------1------1--------------------|
G|--0---0-----0---0-------2--------------2-----0------0----------------------|
D|----------------------------2--------2-------------------------------------|
A|---------------------0---------------------2------3------------------------|
E|----------3----------------------------------------------------------------|

e|-----------------------------------------------------------------------------|
B|------------1------------1-------------1-------------------------------------|
G|----------2------------2---2---------0---0-----------------------------------|
D|-2--h-3--------3--3-3--------------------------------------------------------|
A|-------------------------------------------------------=---------------------|
E|---------------------------------3-------------------------------------------|


end on C!, its pretty simple once you practice it a few times and a  really nice song, 
about the messy tab
Comments