Damien Rice - I Remember Chords & Tabs

 

I Remember Chords & Tabs

Damien Rice Chords & Tabs

Version: 3 Type: Tab 0 ratings
1 star 2 stars 3 stars 4 stars 5 stars
comments

I Remember Tab

   
-------------------------------------------------------------------------------
			     I Remember - Damien Rice
-------------------------------------------------------------------------------
Tabbed by: Ger
Email:

Tuning:standard tuning - capo 2nd fret


   I remember it well                  ...the first time that I saw (x2)
e|----------]----------]-------------]---------------0------ ---------|
B|----------]----------]----------3--]------------------3---- --------|
G|-------0--]-------2--]-------0-----]-------------0-------0----------|
D|-----0----]-----0----]-----0-------]----------0h2---------- 0h20----|
A|----------]----------]-------------]--0--2—3------------------------|
E|--0-------]-2--------]-3-----------]----------------------------3---|


              ........ because time stop moving
e|-------2h3------]---------------------------------------------------|
B|-----------3----]----------------------3----------------------------|
G|---0---------0--]-0----------2-------------0------------------------|
D|-0--------------]-------0---------0-----------0---------------------|
A|----------------]----0----------0------3----------------------------|
E|----------------]-3----------2--------------------------------------|

[ Tab from: http://www.guitartabs.cc/tabs/d/damien_rice/i_remember_tab_ver_3.html ]
            Can you hear me now
e|---------]-------------------------------3-----------]--------------|
B|---------]----------3------------------------3-------]--------------|
G|--0h20---]-------0-------------------0-----------0---]-0------------|
D|---------]----0-----------------0h2------------------]------0-------|
A|---------]---------------0-2-3-----------------------]----0---------|
E|---------]-3-----------------------------------------]-3------------|

e|------------------------]-------------------------------------------|
B|------------3-----------]-------------------------------------------|
G|--2------------0--------]--------Back to verse again----------------|
D|--------0--------0------]--------(top 2 bars )----------------------|
A|-----0------3-----------]-------------------------------------------|
E|--2---------------------]-------------------------------------------|


(Then into Damiens part)
      Am           F
e|------------]-------------]--1----/----3--]--|
B|--0h1h0-----]--1----------]--1----/----3--]--|
G|----2-------]----0h20-----]----2--/-----4----|—hammer Am then  HAMR E
D|----2-------]--------3----]---------------]--|
A|------------]----------3--]---------------]--|
E|------------]-------------]---------------]--|



| /  slide up
| \  slide down
| h  hammer-on
| p  pull-off
| ~  vibrato
| +  harmonic
| x  Mute note
===============================================================================
Comments