Damien Rice - Delicate Chords & Tabs

 

Delicate Chords & Tabs

Damien Rice Chords & Tabs

Version: 1 Type: Tab 0 ratings
1 star 2 stars 3 stars 4 stars 5 stars
comments

Delicate Tab

   
damien rice-delacate from O
5th Fret capo

riff a
e------------------------------------------------------------|
B--------1-----1-----1---1----1-----1-----1--------1--1--0---|
G--------0h2p0-0h2p0 0---0----0-----0-----0--------0--0--0---|
D---3----3-----3-----3---0h2--0h2p0-0h2p0-0--(x2)--0---------|
A---3----3-----3-----3---3----3-----3-----3--------2---------|
E---1----------------------------------------------3---------|

riff b
e----------------------------|
B---1----1---------1--1--0---|
G---2----0---------0--0--0---|
D---3----2---(4x)--0---------|
A---3----3---------2---------|
E---x--------------3---------|


Intro (riff a)
[ Tab from: http://www.guitartabs.cc/tabs/d/damien_rice/delicate_tab.html ]
(a) We might kiss when we are alone
    When nobody's watching
    We might take it home
    We might make out when nobody's there
    It's not that we're scared
    It's just that it's delicate

(b) So why do you fill my sorrow
    With the words you've borrowed
    From the only place you've know
    And why do you sing Hallelujah
    If it means nothing to you
    Why do you sing with me at all?

(a) We might live like never before
    When there's nothing to give
    Well how can we ask for more
    We might make love in some sacred place
    The look on your face is delicate

(b) So why do you fill my sorrow
    With the words you've borrowed
    From the only place you've know
    And why do you sing Hallelujah
    If it means nothing to you
    Why do you sing with me at all?

(a) So why do you fill my sorrow
    With the words you've borrowed
    From the only place you've know
    And why do you sing Hallelujah
    If it means nothing to you
    Why do you sing with me at all?
Comments