Damien Rice - Cold Water Chords & Tabs

 

Cold Water Chords & Tabs

Damien Rice Chords & Tabs

Version: 1 Type: Tab 0 ratings
1 star 2 stars 3 stars 4 stars 5 stars
comments

Cold Water Tab

   
----------------------------------------------------------------------------
			     COLD WATER - Damien Rice                      
----------------------------------------------------------------------------
Tabbed by: Me! (*Bethaney Leggett*)
Email: sweetasanut@hotmail.com

Tuning: Standard

Note - Because mr rice is singing (very nicely!!) you cant pick out exactly whats
being played, but the chords are there, so you can either play the "bass" note, and
them strum, or pluck random strings as you go, whatever takes ur fancy! :D

Part 1:
(Play twice for intro, and twice again for verse) 

        (C)
e|--------0--------------0---------------0---------------------0-------------|
B|--------1--------------1---------------1---------------------1-------------|
G|--------0--------------0---------------0---------------------0-------------|
D|--------2--------------2---------------2---------------------2-------------|
A|---3------------3--2-----------2---0-------------0-------------------------|
E|-----------------------------------------------------1---------------------|
[ Tab from: http://www.guitartabs.cc/tabs/d/damien_rice/cold_water_tab.html ]
   Cold........ cold water..... surrounds me now
   And all......I've Got....... Is Your Hand


(part 2)
(play trice)


e|----------0------------0---------------------------------------------------|
B|----------1------------1---------------------------------------------------|
G|----------0------------0---------------------------------------------------|
D|----3-------------0--------------------------------------------------------|
A|---------------------------------------------------------------------------|
E|---------------------------------------------------------------------------|

    Lord......... can you hear me now?
    Lord......... can you hear me now?
    Lord......... can you hear me now?
    Or am i lost...



Repeat Part 1 Twice


    Love...... one's daughter.......allow me that
    And i can't.... Let Go........ Of Your Hand

Repeat Part 2 trice

    Lord......... can you hear me now?
    Lord......... can you hear me now?
    Lord......... can you hear me now?
    Or am i lost?


**************************Chanting**********************



Repeat Above As Single Does.... it repeats the first verse...



...yer...its an ok tab... but it works!
Comments