Damageplan - Save Me Chords & Tabs

 

Save Me Chords & Tabs

Damageplan Chords & Tabs

Version: 1 Type: Tab 2 ratings
1 star 2 stars 3 stars 4 stars 5 stars
comments

Save Me Tab

   
This is from Damageplan's new CD, New Found Power, and is really awesome.
I would appreciate if this would stay on GTU because I doing this for this
website.  If I find it somewhere else without my permission, there will
be hell to pay.  So here's the song.

Save Me by Damageplan

Tune in Drp D 1 1/2 steps down (B F# B E G# C#)

(the timeing is not perfect so listen to the record to get it right)

        Rhy Fig 1
|------|-------------------------------------|-----------------------------------|
|------|-------------------------------------|-----------------------------------|
|------|-------------------------------------|-----------------------------------|
|------|-------------------------------------|-----------------------------------|
|--8b--|-6---6--6--6--6---(6)--6--6--6--8b---|-3---3--3--3--3---(3)--3--3--3--8b-|
|--8b--|-6---6--6--6--6---(6)--6--6--6--8b---|-3---3--3--3--3---(3)--3--3--3--8b-|

                       End Rhy Fig 1
|-------------------------------------|-----------------------------------|
|-------------------------------------|-----------------------------------|
|-------------------------------------|-----------------------------------|
|-------------------------------------|-----------------------------------|
|-1---1--1--1--1---(1)--1--1--1--8b---|-3---3--3--3--3---(3)--3--3--3--8b-|
|-1---1--1--1--1---(1)--1--1--1--8b---|-3---3--3--3--3---(3)--3--3--3--8b-|


(w/ dist and wah)
Riff A-----------------------------------v Repaeat 2x
|-13-13-13b--(13)-13-13-13-13-13b-(13)-|
|-X--X--X----(X )-X--X--X--X--X---(X )-|
|-10-10-10b--(10)-10-10-10-10-10b-(10)-|
|--------------------------------------|
|--------------------------------------|
|--------------------------------------|

                                            wah off   
|-13-13--13-13b-(13)-13-13-13-13-13-13b-(13)-|
|-10-10--10-10b-(10)-10-10-10-10-10-10b-(10)-|
|-10-10--10-10b-(10)-10-10-10-10-10-10b-(10)-|
|--------------------------------------------|
|--------------------------------------------|
|--------------------------------------------|


Verses (light pm for verses)
|-----------------------------------------|-----------------------------------------|
|-----------------------------------------|-----------------------------------------|
|-----------------------------------------|-----------------------------------------|
|-----------------------------------------|-----------------------------------------|
|--3----1--3--1--3--(3)--1--3--1--3----1--|-3--1--3--(3)--1--3--1--3---4---0--0--1--|
|--3----1--3--1--3--(3)--1--3--1--3----1--|-3--1--3--(3)--1--3--1--3---4---0--0--1--|


|-----------------------------------------|-----------------------------------------|
|-----------------------------------------|-----------------------------------------|
|-----------------------------------------|-----------------------------------------|
|-----------------------------------------|-----------------------------------------|
|--3----1--3--1--3--(3)--1--3--1--3----1--|-3--1--3--(3)--1--3--1--3---X-X-X-/12---|
|--3----1--3--1--3--(3)--1--3--1--3----1--|-3--1--3--(3)--1--3--1--3---X-X-X-/12---|


|-----------------------------------------|-----------------------------------------|
|-----------------------------------------|-----------------------------------------|
|-----------------------------------------|-----------------------------------------|
|-----------------------------------------|-----------------------------------------|
|--3----1--3--1--3--(3)--1--3--1--3----1--|-3--1--3--(3)--1--3--1--3---4---0--0--1--|
|--3----1--3--1--3--(3)--1--3--1--3----1--|-3--1--3--(3)--1--3--1--3---4---0--0--1--|


 Pre Chorus
 Riff B (w/ dist and Whammy Pedal)
    +       +        +        o    +     o Play 3x +        +        +        o  +
| |-----------------------|----------------------||-----------------------|---------------|
| |-13(13)--12(12)--11--|----13--(13)--(13)----||-13(13)--12(12)--11--|----13(13)(13)-|
| |-----------------------|----------------------||-----------------------|---------------|
| |-----------------------|----------------------||-----------------------|---------------|
| |-----------------------|----------------------||-----------------------|---------------|
| |-----------------------|----------------------||-----------------------|---------------|
|
|   += pedal foward/toe down
|   o= pedal back/toe up
|
|
|
| |-----------------|----------------------------||------------------|-----------------|
| |-----------------|----------------------------||------------------|-----------------|
| |-----------------|----------------------------||------------------|-----------------|
| |-----------------|----------------------------||------------------|-----------------|
| |-X-X-X-X-X-X-X-X-|-X-X---X---X---3----4-0-0-1-||--X---X-X-X---X---|-X-X-X---3-4-8b--|
| |-X-X-X-X-X-X-X-X-|-X-X---X---X---3----4-0-0-1-||--X---X-X-X---X---|-X-X-X---3-4-8b--|


Chorus
|---------------------------|--------------------------|----------------------------|
|---------------------------|--------------------------|----------------------------|
|---------------------------|--------------------------|----------------------------|
|---------------------------|--------------------------|----------------------------|
|--6--6-6-6-6--(6)-6-6-6-8b-|-3--3-3-3-3--(3)-3-3-3-8b-|-1--1-1-1-1--(1)-1-1-1-1-8b-|
|--6--6-6-6-6--(6)-6-6-6-8b-|-3--3-3-3-3--(3)-3-3-3-8b-|-1--1-1-1-1--(1)-1-1-1-1-8b-|

[ Tab from: http://www.guitartabs.cc/tabs/d/damageplan/save_me_tab.html ]
|--------------------------|--------------------------|--------------------------|
|--------------------------|--------------------------|--------------------------|
|--------------------------|--------------------------|--------------------------|
|--------------------------|--------------------------|--------------------------|
|-3--3-3-3-3--(3)-3-3-3-8b-|-6--6-6-6-6--(6)-6-6-6-8b-|-3--3-3-3-3--(3)-3-3-3-8b-|
|-3--3-3-3-3--(3)-3-3-3-8b-|-6--6-6-6-6--(6)-6-6-6-8b-|-3--3-3-3-3--(3)-3-3-3-8b-|

|--------------------------|
|--------------------------|
|--------------------------|
|--------------------------|
|-1--1-1-1-1--(1)-1-1-1-8b-|
|-1--1-1-1-1--(1)-1-1-1-8b-|


light pm-----------------------------------------------------------------------------v
|-----------------------------------------|-----------------------------------------|
|-----------------------------------------|-----------------------------------------|
|-----------------------------------------|-----------------------------------------|
|-----------------------------------------|-----------------------------------------|
|--3----1--3--1--3--(3)--1--3--1--3----1--|-3--1--3--(3)--1--3--1--3---X-X-X--12---|
|--3----1--3--1--3--(3)--1--3--1--3----1--|-3--1--3--(3)--1--3--1--3---X-X-X--12---|



Solo (w/ dist, flanger, and delay)
|----------------------------------------|---------------------|
|----------------------------------------|---------------------|
|----------------------------------------|---------------13vvv-|
|-15-13-13-15p13-15-13-13-15p13-15-13-13-|-15-15-15-13h15------|
|-ph-------ph-ph-ph-------ph-ph-ph-------|----ph-ph-ph-ph------|
|----------------------------------------|---------------------|
                        
                                              w/bar
|----------------------------------------------|-----------------------------------|
|------13-16-----13-16-----13-16-----13-16-----|-13--------------------------------|
|-X15b-------15b-------15b-------15b-------15b-|----16vvv(16)--13h16p13vvvvv(13)--|
|----------------------------------------------|-----------------------------------|
|----------------------------------------------|-----------------------------------|
|----------------------------------------------|-----------------------------------|


|------------------------------------------------------------------------------|
|---------------------------------------------------------15-16p15p13-15-16-18-|
|---------------------12-13-15p13-12-13h15h16p15-13-15-16----------------------|
|-/12--13-15-16-13-15----------------------------------------------------------|
|------------------------------------------------------------------------------|
|------------------------------------------------------------------------------|


|----------15-16-18-16-15-15-15-17/19-20p19-19-19bvvvvv-16b-|
|-16-15-18--------------------------------------------------|
|-----------------------------------------------------------|
|-----------------------------------------------------------|
|-----------------------------------------------------------|
|-----------------------------------------------------------|

                                       hold bend-----v
|-(16)-(16)-16p15--------------------|---------------------------16vvv--|
|-----------------16----16----16vvv--|-16b--(16)-16-16-16vvv------------|
|--------------------15----15--------|-----------------------13---------|
|------------------------------------|----------------------------------|
|------------------------------------|----------------------------------|
|------------------------------------|----------------------------------|


Outro
|-----------------------------------|-------------------------------------|
|-----------------------------------|-------------------------------------|
|-----------------------------------|-------------------------------------|
|-----------------------------------|-------------------------------------|
|-3---3--3--3--3---(3)--3--3--3--8b-|-6---6--6--6--6---(6)--6--6--6--8b---|
|-3---3--3--3--3---(3)--3--3--3--8b-|-6---6--6--6--6---(6)--6--6--6--8b---|


|-----------------------------------|-------------------------------------|
|-----------------------------------|-------------------------------------|
|-----------------------------------|-------------------------------------|
|-----------------------------------|-------------------------------------|
|-3---3--3--3--3---(3)--3--3--3--8b-|-1---1--1--1--1---(1)--1--1--1--8b---|
|-3---3--3--3--3---(3)--3--3--3--8b-|-1---1--1--1--1---(1)--1--1--1--8b---|


|-----------------------------------|-------------------------------------|
|-----------------------------------|-------------------------------------|
|-----------------------------------|-------------------------------------|
|-----------------------------------|-------------------------------------|
|-3---3--3--3--3---(3)--3--3--3--8b-|-6---6--6--6--6---(6)--6--6--6--8b---|
|-3---3--3--3--3---(3)--3--3--3--8b-|-6---6--6--6--6---(6)--6--6--6--8b---|


|-----------------------------------|---------------------------------------|
|-----------------------------------|---------------------------------------|
|-----------------------------------|---------------------------------------|
|-----------------------------------|---------------------------------------|
|-3---3--3--3--3---(3)--3--3--3--8b-|-1---1--1--1--1---(1)--1--1--1--5-X-0--|
|-3---3--3--3--3---(3)--3--3--3--8b-|-1---1--1--1--1---(1)--1--1--1--5-X-0--|

v---------------------------v-----------------------------v
      pm-----------v     3x                             3x                pm--------v
|---------------------------|-----------------------------|-----------------------------------|
|---------------------------|-----------------------------|-----------------------------------|
|---------------------------|-----------------------------|-----------------------------------|
|---------------------------|-----------------------------|-----------------------------------|
|-(0)--1--2--3--3--4--5b--0-|-(0)--1--2--3-/6--5--4--3--0-|-----------------------------------|
|-(0)--1--2--3--3--4--5b--0-|-(0)--1--2--3-/6--5--4--3--0-|-(0)--1--2--3--6-6-6-6-6-6-6--1--0-|

freebird784ever
Comments