Damageplan - Pride Chords & Tabs

 

Pride Chords & Tabs

Damageplan Chords & Tabs

Version: 1 Type: Tab 0 ratings
1 star 2 stars 3 stars 4 stars 5 stars
comments

Pride Tab

   
---------------------------------------------------------------------------
			     PRIDE-Damage Plan                             
Tabbed by: Tyler Greig (dbzrage3k)
Email: gtheleadguitarist@hotmail.com

Tuning: Drop B

Intro 1
|--------|
|-7---12-|
|-4----9-|
|--------|
|--------|
|--------|

Intro 2
|--------------|
|--------------|
|--------------|
|--------------|
|--------------|
|--0-2b--0-2b--| x8
When it gets heavy, move to:

Intro 3
|------------|
|------------|
|------------|
|-0-2b--0-2b-|
|-0-2b--0-2b-|
|-0-2b--0-2b-|x8
On the 8th time, you'll also hear

|------|
|------|
|------|
|-/12\-|
|-/12\-|
|-/12\-|
Then go into

Intro 4/Chorus
|--------------------------------------------------|
|--------------------------------------------------|
|--------------------------------------------------|
|--2-2-0-2-2-0-2-2-0-2-2--0-5-5-0-5-5-0-5-5-0-5-5--|
|--2-2-0-2-2-0-2-2-0-2-2--0-5-5-0-5-5-0-5-5-0-5-5--|
|--2-2-0-2-2-0-2-2-0-2-2--0-5-5-0-5-5-0-5-5-0-5-5--|

|-----------------------------------------------------|                     
|-----------------------------------------------------|                     
|-----------------------------------------------------|                     
|-0-2-2-0-2-2-0-2-2-0-2-2--0-5-5-0-5-5--12-11-9-7-5-0-|                     
|-0-2-2-0-2-2-0-2-2-0-2-2--0-5-5-0-5-5--12-11-9-7-5-0-|                     
|-0-2-2-0-2-2-0-2-2-0-2-2--0-5-5-0-5-5--12-11-9-7-5-0-| All that x2 then 

|---|
|---|
|---|
|-2-|
|-2-|
|-2-| just before the verse

Verse
|-------------------------|
|---7---12---7---12---15--|
|---4----9---4----9---12--|
|-------------------------|
|-------------------------|
|-------------------------|

Effected part
|------|
|------|
|------|
|-2br~-|
|-2br~-|
|-2br~-|
You'll probably agree that without the effect, it doesn't sound anything like the recording,
but if you listen to the your guitar and Darrell's guitar as they ring, they sound the same.

Also, just before the vocals come in, you'll hear:
|-----------------------------|
|-----------------------------|
|-----------------------------|
|-2-2-2-2-2-2-2-2-2-2-2-2-2-2-|
|-2-2-2-2-2-2-2-2-2-2-2-2-2-2-|
|-2-2-2-2-2-2-2-2-2-2-2-2-2-2-|
PM.............................

Intro 4/Chorus
|--------------------------------------------------|
|--------------------------------------------------|
|--------------------------------------------------|
|--2-2-0-2-2-0-2-2-0-2-2--0-5-5-0-5-5-0-5-5-0-5-5--|
|--2-2-0-2-2-0-2-2-0-2-2--0-5-5-0-5-5-0-5-5-0-5-5--|
|--2-2-0-2-2-0-2-2-0-2-2--0-5-5-0-5-5-0-5-5-0-5-5--|

|-----------------------------------------------------|                     
|-----------------------------------------------------|                     
|-----------------------------------------------------|                     
|-0-2-2-0-2-2-0-2-2-0-2-2--0-5-5-0-5-5--12-11-9-7-5-0-|                     
|-0-2-2-0-2-2-0-2-2-0-2-2--0-5-5-0-5-5--12-11-9-7-5-0-|                     
|-0-2-2-0-2-2-0-2-2-0-2-2--0-5-5-0-5-5--12-11-9-7-5-0-| All that x2 then 
[ Tab from: http://www.guitartabs.cc/tabs/d/damageplan/pride_tab.html ]
|---|
|---|
|---|
|-2-|
|-2-|
|-2-| just before the verse

Verse
|-------------------------|
|---7---12---7---12---15--|
|---4----9---4----9---12--|
|-------------------------|
|-------------------------|
|-------------------------|

Effected part
|------|
|------|
|------|
|-2br~-|
|-2br~-|
|-2br~-|

|-----------------------------|
|-----------------------------|
|-----------------------------|
|-2-2-2-2-2-2-2-2-2-2-2-2-2-2-|
|-2-2-2-2-2-2-2-2-2-2-2-2-2-2-|
|-2-2-2-2-2-2-2-2-2-2-2-2-2-2-|
PM.............................

Intro 4/Chorus
|--------------------------------------------------|
|--------------------------------------------------|
|--------------------------------------------------|
|--2-2-0-2-2-0-2-2-0-2-2--0-5-5-0-5-5-0-5-5-0-5-5--|
|--2-2-0-2-2-0-2-2-0-2-2--0-5-5-0-5-5-0-5-5-0-5-5--|
|--2-2-0-2-2-0-2-2-0-2-2--0-5-5-0-5-5-0-5-5-0-5-5--|

|-----------------------------------------------------|
|-----------------------------------------------------|
|-----------------------------------------------------|
|-0-2-2-0-2-2-0-2-2-0-2-2--0-5-5-0-5-5--12-11-9-7-5-0-|
|-0-2-2-0-2-2-0-2-2-0-2-2--0-5-5-0-5-5--12-11-9-7-5-0-|
|-0-2-2-0-2-2-0-2-2-0-2-2--0-5-5-0-5-5--12-11-9-7-5-0-|

Bridge

Sorry, i don't know the solo, but i've got these parts:

|-------------|
|-------------|
|-------------|
|-2-x-x-x-x-x-|
|-2-x-x-x-x-x-|
|-2-x-x-x-x-x-| Repeat that til about 3:20 of the solo, then switch to:

|--------------|
|--------------|
|--------------|
|-2--2-3-4-5-0-|
|-2--2-3-4-5-0-|
|-2--2-3-4-5-0-| Repeat that til the solo ends, then:

Intro 2
|--------------|
|--------------|
|--------------|
|--------------|
|--------------|
|--0-2b--0-2b--| Repeat this a few times, then:

Intro 4/Chorus
|--------------------------------------------------|
|--------------------------------------------------|
|--------------------------------------------------|
|--2-2-0-2-2-0-2-2-0-2-2--0-5-5-0-5-5-0-5-5-0-5-5--|
|--2-2-0-2-2-0-2-2-0-2-2--0-5-5-0-5-5-0-5-5-0-5-5--|
|--2-2-0-2-2-0-2-2-0-2-2--0-5-5-0-5-5-0-5-5-0-5-5--|

|-----------------------------------------------------|                     
|-----------------------------------------------------|                     
|-----------------------------------------------------|                     
|-0-2-2-0-2-2-0-2-2-0-2-2--0-5-5-0-5-5--12-11-9-7-5-0-|                     
|-0-2-2-0-2-2-0-2-2-0-2-2--0-5-5-0-5-5--12-11-9-7-5-0-|                     
|-0-2-2-0-2-2-0-2-2-0-2-2--0-5-5-0-5-5--12-11-9-7-5-0-| All that x2 then 

|---|
|---|
|---|
|-2-|
|-2-|
|-2-| before the outro

Outro
|--------------------------|
|--------------------------|
|--------------------------|
|-0-1-2-*hit the strings---|
|-0-1-2-above the nut with-|
|-0-1-2-lots of feedback*--|  Play that x4

End with
|-------|
|-------|
|-------|
|-0-1-2-|
|-0-1-2-|
|-0-1-2-|




| /  slide up
| \  slide down
| h  hammer-on
| p  pull-off
| ~  vibrato
| +  harmonic
| x  Mute note
============================================================================
Comments