Damageplan - New Found Power Chords & Tabs

 

New Found Power Chords & Tabs

Damageplan Chords & Tabs

Version: 1 Type: Tab 0 ratings
1 star 2 stars 3 stars 4 stars 5 stars
comments

New Found Power Tab

www.damageplan.com

Damage Plan - New Found Power


this song is in drop b tuning

intro
------------------------------
------------------------------
------------------------------
------------------------------
------------------------------
-0-0-0-3-0-0-0-3-0-0-0-3-6-5-3


---------------------
---------------------
--7-----9-----10-----
--7-----9-----10-----
--5-----7-----8------
---------------------


---------------------------------
---------------------------------
---------------------------------
---------------------------------
--555555--333333--555555--888888-
---------------------------------

---------------------------------
---------------------------------
---------------------------------
---------------------------------
--555555--333333--555555--666666-
---------------------------------

--------------------------------------------
--------------------------------------------
--------------------------------------------
--5--8--7-----------------------------------
--5--8--7-----------------------------------
--5--8--7---300000-300000-300000-30-55-66---
[ Tab from: http://www.guitartabs.cc/tabs/d/damageplan/new_found_power_tab.html ]
--------------------------------------------
--------------------------------------------
--------------------------------------------
--3--2--1-----------------------------------
--3--2--1-----------------------------------
--3--2--1---300000-300000-300000-30-55-66---

--------------------------------------------
--------------------------------------------
--------------------------------------------
--5--8--7----5--8--7----5--8--7-----0-------
--5--8--7----5--8--7----5--8--7-----0-------
--5--8--7----5--8--7----5--8--7-----0-------

----------------  ----------------------------
----------------  ----------------------------
----------------x3----------------------------
-3-0-0-0-6-6-6--  ----333333-222222-----------
-3-0-0-0-6-6-6--  ----333333-222222-----------
-3-0-0-0-6-6-6--  ----333333-222222-----------

-------------------  
-------------------  
---7~---9~---10~---  
-------------------  
-------------------
-------------------


there all all the riffs from the song (and what a ****ing song it is!)
ya can put it in the right order ya self coz it aint hard


tabbed by martin colclough
sdmf
Comments