Damageplan - Breathing New Life Chords & Tabs

 

Breathing New Life Chords & Tabs

Damageplan Chords & Tabs

Version: 1 Type: Tab 1 rating
1 star 2 stars 3 stars 4 stars 5 stars
comments

Breathing New Life Tab

   
damageplan
				
Breathing New Life..

I learned this by ear. 
if any parts are wrong let me know


s/ = slide forward
b = bend
v = vibrato
h = hammer
p = pull off
s.p = speed pick
s\ = slide back
pm = palm mute
l.r = let ring
HRM = Haromony

Intro / Chorus
--------------------------------------------------------------------------
--------------------------------------------------------------------------
--------------------------------------------------------------------------
--------------------------------------------------------------------------
5--6--3--4--2--3---5--6--3--4--2--3---5--6--3--4--2--3---5--6--3--4--7--8-
3--4--1--2--0--1---3--4--1--2--0--1---3--4--1--2--0--1---3--4--1--2--5--6-
Do 2 times

Verse. Pt 1

l.r       	   l.r	     l.r			   l.r
----------------------------------------------------------------
----------------------------------------------------------------
--------------------3--------------------------3-------------6--
--------------------2--------------------------2-------------5--
------------------- 1--------------------------1-------------4--
-0---------1 s/ 3-------------0-------0-1 s/ 3----3--3 s/ 6-----
Do 2 times

Verse. Pt 2                             l.r                		 l.r	      l.r	    
-----------------------------------------------------------------------------------------
-----------------------------------------------------------------------------------------
-----------------------------------------3--------------------------------3------------6-
-----------------------------------------2--------------------------------2------------5-
--7s\--------------------7s\-------------1-------------------7s\----------1------------4-
-----0-0-0-0-0-0-0-0-0-0-----0---1 s/ 3-----0-0-0-0-0-0-0-0-0----0--1 s/3----3--3 s/ 6---
Do 2 times

Pre Chorus
-----------------------------------------------------------
-----------------------------------------------------------
9---9------------------99999-------------------------------
-----------------------------------------------------------
7---7--------5---------77777--------5------------2------2--
-------5 s/7---7-6v-----------5 s/7---7--6v--3v--0--3v--0--

--------------------------------------
--------------------------------------
9---9----------------99999------------
--------------------------------------
7---7--------5-------77777--------5---
-------5 s/7---7-6v---------5 s/7---7-

[ Tab from: http://www.guitartabs.cc/tabs/d/damageplan/breathing_new_life_tab.html ]
Harmonics before solo.use a wammy pedal
on this part of the song.I've done it without a wammy.
ther is a harmony on this part.most likely to be 1oct higher.
-----------------
-----------------
-3bv---3bv---3v--
-----------------
-----------------
-----------------
Do 2 times
pinch about 1cm from the back of the neck pickup fixing. 
for the last one.pinch over the back bobbin's of the neck pickup.

There is also a harmony on this part.not sure what it is thought.

Guitar Solo			  HRM--------------------------
------------------------------------------------------18---21b-
--------------------------------------------------17----17-----
-12b----12----12----12-----------------------15-----15---------
-----14---14----14----14----------------14------14-------------
------------14----13----12--10h12p10-------14------------------
--------------------------------------12-----------------------

                                   pm---------------------------------
----------------------------------------------------------------------
----------------------------------------------------------------------
-12b----12----12----12------------------------------------------------
-----14---14----14----14----------------------------------14-15-14-15-
------------14----13----12-10h12p10------------13-14-13-14------------
------------------------------------12-13-12-13-----------------------


                                  s.p-----------------
-----------------------18-19-18-19--21-19-18-21-19-18-
------------17-18-17-18-------------------------------
-15-16-15-16------------------------------------------
------------------------------------------------------
------------------------------------------------------
------------------------------------------------------

Fill aftr solo					            l.r
------------------------------------------------------------------
------------------------------------------------------------------
------------------------------------------------------------------
------------------------------------------------------------------
-------------------------------------------------------------2----
-3-s/-12-s\-3-s/-12-s\-3-s/-12-s\-3-s/-12-s\-3-s/-12s\-------0----
On the last 12th fret slide back do a gradual slide.


Then from there do 
verse
pre chorus
chorus *repeat chorus till end*

Riff Right at the end 4 times.
----------
----------
----------
----------
-3--7--8--
-2--5--6--
Do this 4 times.

MR_MUSTAINE@HOTMAIL.COM
                                

Comments