Damaged - Nails Chords & Tabs

 

Nails Chords & Tabs

Damaged Chords & Tabs

Version: 1 Type: Tab 0 ratings
1 star 2 stars 3 stars 4 stars 5 stars
comments

Nails Tab

================================================================================
         Title : Nails
        Artist : Damaged
         Album : Do not Spit
Transcribed by : By DimeBolt (dime_bolt@email.com)
================================================================================


Tune down 1 1/2 steps (Db,Gb,B,E,Ab,Db)

   Intro riff (With pick scrapes) ()Not played in fast part at end
1||-----------------|-------------------||-----------------|-----------------|
2||-----------------|-------------------||-----------------|-----------------|
3||-----------------|-------------------||-----------------|-----------------|
4||-----------------|-------3---2-(3)/-\||-----------------|-------3---2-3---|
5||-2-2-2-2-3-2-2-2-|-4-2-2-1---0-(1)/-\||-2-2-2-2-2-2-2-2-|-2-2-2-1---0-1---|
6||-0-0-0-0-1-0-0-0-|-2-0-0-------------||-0-0-0-0-0-0-0-0-|-0-0-0-----------|

                                        Slow Bends
1||-----------------|-----------------||-----------------|-----------------|
2||-----------------|-----------------||-----------------|-----------------|
3||-----------------|-----------------||-----------------|-----------------|
4||-----------------|-----------------||-----------------|-----------------|
5||-2-2-2-2-2-2-2-2-|-2--------trill--||-2---2-2---------|-2---2-2-1^------|
6||-0-0-0-0-0-0-0-0-|-0-3---2-02020202||-0---0-0-2^------|-0---0-0---------|
[ Tab from: http://www.guitartabs.cc/tabs/d/damaged/nails_tab.html ]
                                        Triplet feel
1||-----------------|-----------------||----------------------------||
2||-----------------|-----------------||----------------------------||
3||-----------------|-----------------||----------------------------||
4||-----------------|-----------------||-------------------10---9---||
5||-2---2-2---------|-2---2-2-3^------||--------------------8---7---||
6||-0---0-0-4^------|-0---0-0---------||-000000000000000000---------||


1||-----------------|-----------------|-----------------|----------------||----||
2||-----------------|-----------------|-----------------|----------------||----||
3||-----------------|-----------------|-----------------|----------------||----||
4||-----------------|-----------------|-4---4-4-3---3-3-|-4---4-4-3------||----||
5||-4---------------|---4-4-4-4-4-4-4-|-2---2-2-1---1-1-|-2---2-2-1---/-\||-2--||
6||-2---------------|---2-2-2-2-2-2-2-|-----------------|----------------||-0--||

                                         Free Time
1||-----------------|------------------||---------------------||
2||-----------------|------------------||---------------------||
3||-----------------|------------------||---------------------||
4||-----------------|------------------||---------------------||
5||-----------------|-------trill------||-2-----2^-----222-2--||
6||-0---0-0-3---2---|-0202020202020202-||-0------------000-0--||
Comments