Damaged - After World Obliteration Chords & Tabs

 

After World Obliteration Chords & Tabs

Damaged Chords & Tabs

Version: 1 Type: Tab 0 ratings
1 star 2 stars 3 stars 4 stars 5 stars
comments

After World Obliteration Tab

   
================================================================================
         Title : After World Obliteration (Terrorizer cover)
        Artist : Damaged
         Album : Purified in Pain
Transcribed by : By DimeBolt (dime_bolt@email.com)
================================================================================

Tune down 1 step (D,G,F,C,A,D)

   Intro
1||--------------------||------------------||--------------------------|
2||--------------------||------------------||--------------------------|
3||--------------------||------------------||--------------------------|
4||--------------------||------------------||--------------------------|
5||-222222222222222222-||-22-255-522-25-/8-||-------222222------222222-|
6||-000000000000000000-||-00-033-300-03-/6-||-222222------222222-------|

[ Tab from: http://www.guitartabs.cc/tabs/d/damaged/after_world_obliteration_tab.html ]
1||--------------------------||------------------||--------------------||
2||--------------------------||------------------||--------------------||
3||--------------------------||------------------||--------------------||
4||--------------------------||-----54------43---||--------------------||
5||-------222222-------------||-2---32--3---21---||-2------------------||
6||-222222------111111000000-||-0-------1--------||-0-0000003^-04^-05^-||


1||--------------------------------||-----------------|-----------------||
2||--------------------------------||-----------------|-----------------||
3||--------------------------------||-----------------|-----------------||
4||--------------------------------||-----------------|-----------------||
5||--------------------------------||-22-255-522-25-4-|-22-255-522-25-8-||
6||-0000003/4/5/6660000003/4/5/666-||-00-033-300-03-2-|-00-033-300-03-6-||


1||------------------|------------------||
2||------------------|------------------||
3||------------------|------------------||
4||-----44-4----44-4-|-----44-4---------||
5||-44-422-244-422-2-|-44-422-233-322-2-||
6||-22-2----22-2-----|-22-2----11-100-0-||
Comments