Damage Control - Prototype Chords & Tabs

 

Damage Control Chords & Tabs

Version: 1 Type: Tab 0 ratings
1 star 2 stars 3 stars 4 stars 5 stars
comments

Prototype Tab

   
#------------Created with Taborama Tab Creator-----------------#
#------------------------------------------------------------------------------#

Title: Prototype Solo
Artist: Damage Control
Album: Damage Control

Instrument: Guitar

Tabbed by: Adam Daily (RageAgainstNSync@aol.com)

Tuning: Standard (E A D G B E)

Prototype guitar solo. Some fingertapping. The "v"s are quick dips of 
the whammy bar, not dive-bombs. Play as fast as possible.

Legend:
h- hammer on
p- pull off
/- slide
(x)- bend to
*- bar dive
v- whammy bar down
///- pick scrape

         x4
E|-----|-----|--------------------------------------------------------||
B|--5b-|5p3p0|-5b----------------------------------------------10-10--||
G|-----|-----|----3----------------------------------9-9-11-11--------||
D|------------------5-3--------------------9-9-11-11------------------||
A|----------------------5-3b0-*--9-9-12-12----------------------------||
E|--------------------------------------------------------------------||
                                x4        x4     speed pick as needed
E|---------------------------|--------|--------|----------------------||
B|-12-12-12-12b(14)r12-10----|14-10---|12-10---|-9-10-9-12-9-10-9-12--||
G|------------------------11-|------11|------11|----------------------||
D|--------------------------------------------------------------------||
A|--------------------------------------------------------------------||
E|--------------------------------------------------------------------||
[ Tab from: http://www.guitartabs.cc/tabs/d/damage_control/prototype_tab.html ]
E|------|-------------------------------5-7bp5/3|h8p5p3h5h7p5p3h5h8--||
B|-9-7-9|-7-7/5-5b(6)/6/5r5/3-5-5-5-5-7---------|--------------------||
G|------|---------------------------------------|--------------------||
D|-------------------------------------------------------------------||
A|-------------------------------------------------------------------||
E|-------------------------------------------------------------------||

E|-p5p3h5h10---------------------------------------------------------||
B|----------h8p5p3h5h7p5p3h5h8p5p3h5h10------------------------------||
G|-------------------------------------h8p5p3h5h7p5p3h5h8p5p3h5h10---||
D|-------------------------------------------------------------------||
A|-------------------------------------------------------------------||
E|-------------------------------------------------------------------||

E|----------------------------h8p5p3h5h7p5p3h5h8p5p3h5h10------------||
B|-h8p5p3h5h7p5p3h5h8p5p3h5h10---------------------------------------||
G|-------------------------------------------------------------------||
D|-------------------------------------------------------------------||
A|-------------------------------------------------------------------||
E|-------------------------------------------------------------------||
        x4        x4       x4       x4       x4
E|-|h7/9p5p3h5|h8p3p0h3|h7p3p0h3|h8p3p0h3|h10p3p0h3|-----------------||
B|-|----------|--------|--------|--------|---------|-----------------||
G|-|----------|--------|--------|--------|---------|-----------------||
D|-------------------------------------------------------------------||
A|-------------------------------------------------------------------||
E|-------------------------------------------------------------------||
                  x4
E|-|h8p3p0h3h7p3p0h3h8p3p0h3h10p3p0h3|7p3p0h3-vvvvvvvv---------------||
B|-|---------------------------------|-------------------------------||
G|-|---------------------------------|-----------------///-----------||
D|-----------------------------------------------------///-----------||
A|-----------------------------------------------------///-----------||
E|-------------------------------------------------------------------||
Comments